E-Chords
Random Hero

Breakdown(Tabs)

Random Hero

Intro: 
e|---------------------------------------------------------------------------| 
B|---------------------------------------------------------------------------| 
G|---------------------------------------------------------------------------| 
D|----------------------------------------------X4---------------------------| 
A|---------------------------------------------------------------------------| 
E|-------7-7-7-5-5-5-8-8-8-7-7-5-5-------------------------------------------| 
B|-0-0-0---------------------------------------------------------------------| 

Intro Pt2 
e|---------------------------------------------------------------------------| 
B|---------------------------------------------------------------------------| 
G|---------------------------------------------------------------------------| 
D|-9-9-9-7-7-7-10-10-10-9-9-9--5--7--9-9-9-7-7-7-10-10-10-9-9-9--4-----------| 
A|-9-9-9-7-7-7-10-10-10-9-9-9--5--7--9-9-9-7-7-7-10-10-10-9-9-9--4-----------| 
E|-7-7-7-5-5-5-8--8--8--7-7-7--3--5--7-7-7-5-5-5-8--8--8--7-7-7--2-----------| 
B|---------------------------------------------------------------------------| 

e|---------------------------------------------------------------------------| 
B|---------------------------------------------------------------------------| 
G|---------------------------------------------------------------------------| 
D|-9-9-9-7-7-7-10-10-10-9-9-9--5--7--2------4--------------------------------| 
A|-9-9-9-7-7-7-10-10-10-9-9-9--5--7--2------4--------------------------------| 
E|-7-7-7-5-5-5-8--8--8--7-7-7--3--5--0------2--------------------------------| 
B|---------------------------------------------------------------------------| 

Verse 
Basic picking pattern,if you listen close it varies a little. 
e|---------------------------------------------------------------------------| 
B|---------------------------------------------------------------------------| 
G|---------------------------------------------------------------------------| 
D|---------------------------------------------------------------------------| 
A|---------------------------------------------------------------------------| 
E|-7-7-7--7-7--7-7-7-7--7-7--7-7-7-7--7-7--7-7-7-7--7-7--7-------------------| 
B|-0-0-0--0-0--0-0-0-0--0-0--0-0-0-0--0-0--0-0-0-0--0-0--0-------------------| 

e|---------------------------------------------------------------------------| 
B|---------------------------------------------------------------------------| 
G|---------------------------------------------------------------------------| 
D|-------------------------------------------7-----4-------------------------| x2 
A|-------------------------------------------7-----4-------------------------| 
E|-5-5-5--5-5--5-5-5-5--5-5--5-2-2-2--2-2--2-5-----2-------------------------| 
B|---------------------------------------------------------------------------| 

Pre-Chorus 
e|---------------------------------------------------------------------------| 
B|---------------------------------------------------------------------------| 
G|---------------------------------------------------------------------------| 
D|--5---------7--------------------------------------------------------------| 
A|--5---------7--------------------------------------------------------------| 
E|--3---------5--------------------------------------------------------------| 
B|---------------------------------------------------------------------------| 

Chorus  (chords) 
e|---------------------------------------------------------------------------| 
B|---------------------------------------------------------------------------| 
G|---------------------------------------------------------------------------| 
D|-------5------------7------or----9---5------12---7-------------------------| x4 
A|---2---5-------5----7------------9---5------12---7-------------------------| 
E|---2---3-------5----5------------7---3------10---5-------------------------| 
B|---0-----------3-----------------------------------------------------------| 

e|---------------------------------------------------------------------------| 
B|---------------------------------------------------------------------------| 
G|---------------------------------------------------------------------------| 
D|---------------------------------------------------------------------------| 
A|--2-2-2--2-2--2-2-2-2--2---------------------------------------------------| 
E|--2-2-2--2-2--2-2-2-2--2---------------------------------------------------| 
B|--0-0-0--0-0--0-0-0-0--0---------------------------------------------------| 

repeat intro pt2, verse, Pre-Chorus, Chorus 

Bridge 
e|---------------------------------------------------------------------------| 
B|---------------------------------------------------------------------------| 
G|---------------------------------------------------------------------------| 
D|--5----7-------------------------------------------------------------------| x2 
A|--5----7----------------2---2---2---------------2---2---2------------------| 
E|--3----5----7-7-7-5-5-5-2---2---2---7-7-7-5-5-5-2---2---2------------------| 
B|------------------------0---0---0---------------0---0---0------------------| 

Repeat intro, Chorus x2, intro pt2 

************************************ 

| /   slide up 
| \   slide down 
| h   hammer-on 
| p   pull-off 
| ~   vibrato 
| +   harmonic 
| x   Mute note 
| b   Bend 
| pb  Pre-bend 
| br  Bend release 
| pbr Pre-bend release 
| brb Bend release bend 

************************************ 

roll up this ad to continue

share this page

See Also: