E-Chords
Ramin Djawadi

The Winds Of Winter(Tabs)

Ramin Djawadi

roll up this ad to continue

Key: Bb
Intro 

Guitar 1 

  Cm                       Bb                       Cm 
e|------------------------|------------------------|------------------------| 
B|--------------4---------|--------------3---------|--------------4---------| 
G|--5-------5-------5~----|--3-------3-------3~----|--5-------5-------5~----| 
D|------5-----------------|------5-----------------|------6-----------------| 
A|------------------------|------------------------|------------------------| 
E|------------------------|------------------------|------------------------| 

Guitar 2 

e|------------------------|------------------------|------------------------| 
B|------------------------|------------------------|------------------------| 
G|--------------5---------|--------------3---------|--------------5---------| 
D|--------------5---------|--------------3---------|--------------5---------| 
A|--------------3---------|--------------1---------|--------------3---------| 
E|------------------------|------------------------|------------------------| 


verse 1 

Guitar 1 

  Cm                 F                  Gm                 G#    
e|------------------|------------------|--------6-------6-|--------8-------8-| 
B|--------4-------4-|--------6-------6-|--8---8---8---8---|--9---9---9---9---| 
G|--5---5---5---5---|--5---5---5---5---|----7-------7-----|----8-------8-----| 
D|----5-------5-----|----7-------7-----|------------------|------------------| 
A|------------------|------------------|------------------|------------------| 
E|------------------|------------------|------------------|------------------| 

Guitar 2 
  
e|------------------|------------------|------------------|------------------| 
B|--------4---------|--------6---------|--------8---------|---------9--------| 
G|--5---5---5-------|--5---5---5-------|--7---7---7-------|--8----8---8------| 
D|----5---1---------|----7---3---------|----8---5---------|----10---6--------| 
A|--3---3---3-------|--3---3---3-------|--5---5---5-------|--6----6---6------| 
E|----3-------------|----5-------------|----6-------------|----8-------------| 



Guitar 1 

  Cm                 F                  Gm                 G#    
|-------------------|------------------|------------------|------------------| 
|--------4-------4--|--------6-------6-|--------8-------8-|--------9-------9-| 
|--5---5---5---5----|--5---5---5---5---|--7---7---7---7---|--8---8---8---8---| 
|----5-------5------|----7-------7-----|----8-------8-----|----10------10----| 
|-------------------|------------------|------------------|------------------| 
|-------------------|------------------|------------------|------------------| 

Guitar 2 
              
e|------------------|------------------|------------------|------------------| 
B|------------------|------------------|------------------|------------------| 
G|--5--5-5---5--5-5-|--5/8-5-----------|--7--7-7---7--7-7-|--8/10-8----------| 
D|------------------|------------------|------------------|------------------| 
A|--3--3-3---3--3-3-|--3/6-3-----------|--5--5-5---5--5-5-|--6/8--6----------| 
E|------------------|------------------|------------------|------------------| 



Guitar 1 

  Cm                 F                  Gm                 F     
e|------------------|------------------|------------------|------------------| 
B|--------4-------4-|--------6-------6-|--------3-------3-|--------6-------4-| 
G|--5---5---5---5---|--5---5---5---5---|--3---3---3---3---|--5---5---5---5---| 
D|----5-------5-----|----7-------7-----|----5-------5-----|----7-------7-----| 
A|------------------|------------------|------------------|------------------| 
E|------------------|------------------|------------------|------------------| 

Guitar 2 

e|------------------|------------------|------------------|------------------| 
B|------------------|------------------|------------------|------------------| 
G|--8--8-8---8--8-8-|--8/11-10---------|--8--8-8---8--8-8-|--8/11-10---------| 
D|------------------|------------------|------------------|------------------| 
A|--5--5-5---5--5-5-|--5/8--7----------|--5--5-5---5--5-5-|--5/8--7----------| 
E|------------------|------------------|------------------|------------------| 


Chorus 1 

Guitar 1 
  
  G#                  Fm                Cm                 Bb   
e|----8-8-8-8-6-6-6-6---------4-4-4-4-|----8-8-8-8-6-6-6-6---------4-4-4-4-| 
B|--------------------6-6-6-6---------|--------------------6-6-6-6---------| 
G|------------------------------------|------------------------------------| 
D|------------------------------------|------------------------------------| 
A|------------------------------------|------------------------------------| 
E|------------------------------------|------------------------------------| 

Guitar 2 

e|--8-11------------------------------|-10-11------------------------------| 
B|--6-9-------------------------------|-10-11------------------------------| 
G|--5-8-------------------------------|-7--8-------------------------------| 
D|------------------------------------|------------------------------------| 
A|------------------------------------|------------------------------------| 
E|------------------------------------|------------------------------------| 



Guitar 1 

  G#                  Fm                Cm                 Bb                    
e|----8-8-8-8-6-6-6-6---------4-4-4-4-|----8-8-8-8-6-6-6-6-4-4-4-4-3-3-3-3-| 
B|--------------------6-6-6-6---------|------------------------------------| 
G|------------------------------------|------------------------------------| 
D|------------------------------------|------------------------------------| 
A|------------------------------------|------------------------------------| 
E|------------------------------------|------------------------------------| 

Guitar 2 

e|--8-11------------------------------|--7-8---------------10--------------| 
B|--6-9-------------------------------|--5-8---------------8---------------| 
G|--5-8-------------------------------|--4-5---------------7---------------| 
D|------------------------------------|------------------------------------| 
A|------------------------------------|------------------------------------| 
E|------------------------------------|------------------------------------| 



Guitar 1 

  G#                  Fm                Cm                 Cm   
e|----1-1-1-1-4-4-4-4-----------------|------------------------------------| 
B|--------------------1-3-4-4-4-4-0-0-|---1--------------------------------| 
G|------------------------------------|------------------------------------| 
D|------------------------------------|------------------------------------| 
A|------------------------------------|------------------------------------| 
E|------------------------------------|------------------------------------| 

Guitar 2 

e|-13-11------------------------------|--7-8-------------------------------| 
B|-13-9-------------------------------|--5-8-------------------------------| 
G|-10-8-------------------------------|--4-5-------------------------------| 
D|------------------------------------|------------------------------------| 
A|------------------------------------|------------------------------------| 
E|------------------------------------|------------------------------------| 


verse 2 

Guitar 1 

  Cm        Cm          Fm(2)   Fm(2)        Cm     Bb 
e|--------------------|--------------------|--------------------| 
B|--------------------|--------------------|--------------------| 
G|--5/8-----5/8-------|--5/10----5/10------|--5/8----3/7--------| 
D|--------------------|--------------------|--------------------| 
A|--------------------|--------------------|--------------------| 
E|--------------------|--------------------|--------------------| 

Guitar 2 

e|--------------------|--------------------|--------------------| 
B|--------------------|--------------------|--------------------| 
G|--5/8-----5/8-------|--5/10----5/10------|--5/8----3/7--------| 
D|--------------------|--------------------|--------------------| 
A|--3/6-----3/6-------|--3/8-----3/8-------|--3/6----1/5--------| 
E|--------------------|--------------------|--------------------| 



Guitar 1 

  Cm       Fm(2)        Cm      Fm(2)        Cm      Eb 
e|--------------------|--------------------|--------------------| 
B|-------4----------9-|-------4----------9-|-------6-------8----| 
G|-5---5---10----10---|-5---5---10----10---|-5---5---8---8------| 
D|---5--------10------|---5--------10------|---6-------8--------| 
A|--------------------|--------------------|--------------------| 
E|--------------------|--------------------|--------------------| 

Guitar 2 

e|--------------------|--------------------|--------------------| 
B|--------------------|--------------------|--------------------| 
G|--5/8----10/13------|--5/8----10/13------|--5/8---10/12-------| 
D|--------------------|--------------------|--------------------| 
A|--3/6-----8/11------|--3/6-----8/11------|--3/6----8/10-------| 
E|--------------------|--------------------|--------------------| 


Guitar 1 

   Fm(2)          Fm(2) 
e|--------------------| 
B|----------9------9--| 
G|--10---10-----------| 
D|----10--------------| 
A|--------------------| 
E|--------------------| 

Guitar 2 

e|--------------------| 
B|--------------11-9--| 
G|--10/13----10-------| 
D|--------------8--6--| 
A|---8/11----8--------| 
E|--------------------| 

------------------------------2 SECOND REST------------------------------ 


Bridge 

Guitar 1 

  Cm           G#                                 Eb 
e|--8----------8----------8----------|--8--------------------------------| 
B|----8-8-9-11-------9-11-------9-11-|--------8-9-11-----8-9-11-----8-9--| 
G|---------------8-8--------8-8------|----8-8--------8-8--------8-8------| 
D|-----------------------------------|-----------------------------------| 
A|-----------------------------------|-----------------------------------| 
E|-----------------------------------|-----------------------------------| 

Guitar 2 

e|--8----------4/6-8-----------------|--8---------6/8--------------------| 
B|-----8-----------------------------|-----8----------8------------------| 
G|--5----------1/3-5-----------------|--5---------3/5--------------------| 
D|-----5-----------------------------|-----5----------5------------------| 
A|-----------------------------------|-----------------------------------| 
E|-----------------------------------|-----------------------------------| 



Guitar 1 
   Gm                                             G# 
e|---------6-8-10-----6-8-10-----6-8-|-10-----6-8-11-----8-10-11---------| 
B|-11-8-8---------8-8--------8-8-----|----8-8--------9-9---------9-9-----| 
G|-----------------------------------|-----------------------------------| 
D|-----------------------------------|-----------------------------------| 
A|-----------------------------------|-----------------------------------| 
E|-----------------------------------|-----------------------------------| 

Guitar 2 

e|-10----------6/8-10----------------|--10--------11/10-8----------------| 
B|----8------------------------------|-----8-----------------------------| 
G|-7-----------3/5-7-----------------|--7----------8/7--5----------------| 
D|----5------------------------------|-----5-----------------------------| 
A|-----------------------------------|-----------------------------------| 
E|-----------------------------------|-----------------------------------| 


Chorus 2 

Guitar 1 
  
  G#                  Fm                Cm                 Bb   
e|----8-8-8-8-6-6-6-6---------4-4-4-4-|----8-8-8-8-6-6-6-6---------4-4-4-4-| 
B|--------------------6-6-6-6---------|--------------------6-6-6-6---------| 
G|------------------------------------|------------------------------------| 
D|------------------------------------|------------------------------------| 
A|------------------------------------|------------------------------------| 
E|------------------------------------|------------------------------------| 

Guitar 2 

e|--8-11------------------------------|-10-11------------------------------| 
B|--6-9-------------------------------|-10-11------------------------------| 
G|--5-8-------------------------------|-7--8-------------------------------| 
D|------------------------------------|------------------------------------| 
A|------------------------------------|------------------------------------| 
E|------------------------------------|------------------------------------| 



Guitar 1 

  G#                  Fm                Cm                 Bb                    
e|----8-8-8-8-6-6-6-6---------4-4-4-4-|----8-8-8-8-6-6-6-6---------4-4-4-4-| 
B|--------------------6-6-6-6---------|--------------------6-6-6-6---------| 
G|------------------------------------|------------------------------------| 
D|------------------------------------|------------------------------------| 
A|------------------------------------|------------------------------------| 
E|------------------------------------|------------------------------------| 

Guitar 2 

e|--8-11------------------------------|--7-8-------------------------------| 
B|--6-9-------------------------------|--5-8-------------------------------| 
G|--5-8-------------------------------|--4-5-------------------------------| 
D|------------------------------------|------------------------------------| 
A|------------------------------------|------------------------------------| 
E|------------------------------------|------------------------------------| 



Guitar 1 

  G#                  Fm                Cm                 Bb                    
e|----8-8-8-8-6-6-6-6---------4-4-4-4-|----8-8-8-8-6-6-6-6-----------------| 
B|--------------------6-6-6-6---------|--------------------6-6-6-6-6-6-6-6-| 
G|------------------------------------|------------------------------------| 
D|------------------------------------|------------------------------------| 
A|------------------------------------|------------------------------------| 
E|------------------------------------|------------------------------------| 

Guitar 2 

e|-7-8----------------10--------------|-13-11------------------------------| 
B|-5-8----------------8---------------|-13-9-------------------------------| 
G|-4-5----------------7---------------|-10-8-------------------------------| 
D|------------------------------------|------------------------------------| 
A|------------------------------------|------------------------------------| 
E|------------------------------------|------------------------------------| 


Outro 

Guitar 1 

   Cm      Fm(2)         Cm     Fm(2)         G#      Eb 
E|------------4-------|------------4-------|----6--------11-----| 
E|----4-----6---------|----4-----6---------|--9-------13--------| 
E|--5-------5---------|--5-------5---------|--8-------12--------| 
E|--5-------3---------|--5-------3---------|--6-------10--------| 
E|--3-----------------|--3-----------------|--------------------| 
E|--------------------|--------------------|--------------------| 

Guitar 2 

e|--------------------|--------------------|----------8/11------| 
B|--------------------|--------------------|--9/11--------------| 
G|--5/8----10/13------|--5/8----10/12------|----------5/8-------| 
D|--------------------|--------------------|--6/8---------------| 
A|--3/6-----8/11------|--3/6-----8/10------|--------------------| 
E|--------------------|--------------------|--------------------| 



Guitar 1 
    Cm Gm  G#  Eb        Cm Gm  G#    Cm 
e|--------------------|--------------------| 
B|--------------------|--------------------| 
G|--5-----------------|--5------------5----| 
D|--5--5---6---8------|--5--5---6--8--5----| 
A|--3--5---6---6------|--3--5---6--6--3----| 
E|-----3---4---6------|-----3---4--6-------| 


Guitar 2 

e|--8-------4/6-8-----|--------------------| 
B|-----8--------------|--------------------| 
G|--5-------1/3-5-----|--5-----------------| 
D|-----5--------------|-----5---6--8--10---| 
A|--------------------|--3-----------------| 
E|--------------------|-----3---4--6--8----| 



************************************ 

| /  Slide up 
| ~  vibrato 

************************************ 
share this page

See Also: