E-Chords
Ramin Djawadi

The King's Arrival(Tabs)

Ramin Djawadi

roll up this ad to continue

FIRST Verse: 

|-----|-----------------------------|-----------------------------|-----------------------------| 
|-----|-----------------------------|-----------------------------|-----------------------------| 
|-----|-----------------------------|-----------------------------|---------------5---6---------| 
|--8~-|---8-8----8----8----8----8~--|---8-8----8----8----8----8~--|----8-8----8-----------8~----| 
|-----|-----------------------------|-----------------------------|-----------------------------| 
|-----|-----------------------------|-----------------------------|-----------------------------| 


|-----------------------------|-----------------------------------|---------------------------------| 
|-----------------------------|-----------------------------------|---------------------------------| 
|---------------5---6---------|--------8---6---5------------------|----6----------------5---6-------| 
|----8-8----8-----------8~----|----8-------------------5---6---8--|----------8~-----8-----------8~--| 
|-----------------------------|--------------------8--------------|---------------------------------| 
|-----------------------------|-----------------------------------|---------------------------------| 


------------------------------------------------------------------------------------------------------------- 

Chorus (2 Guitars): 

Guitar 1 

|-----------------------------------|---------------------------------|---------------------------------| 
|-----------------------------------|---------------------------------|---------------------------------| 
|-------5---6~--------8-------------|------5---6~----10~----8---6---6~|-----------------6~--------------| 
|---8-----------------------8-------|--8------------------------------|--------8~---------------8~------| 
|-----------------------------------|---------------------------------|---------------------------------| 
|-----------------------------------|---------------------------------|---------------------------------| 


Guitar 2 

|-----------------------------------|---------------------------------|---------------------------------| 
|-----------------------------------|---------------------------------|---------------------------------| 
|-----------------------------------|---------------------------------|---------------------------------| 
|-----------4~----------------------|----------4~-----------4---4---4~|-----------------4~--------------| 
|---------------------6-------------|-----------------6---------------|--------6~-----------------------| 
|---------------------------6~------|---------------------------------|-------------------------6~------| 



------------------------------------------------------------------------------------------------------------- 

SECOND Verse: 

|-----|-----------------------------|-----------------------------|-----------------------------| 
|-----|-----------------------------|-----------------------------|---6~--------------------6---| 
|-----|---------------5---6---------|--------8---8---6------------|-------------5--6--6--8------| 
|--8~-|----8-8----8-----------8~----|----8-----------------8~-----|----------8------------------| 
|-----|-----------------------------|-----------------------------|-----------------------------| 
|-----|-----------------------------|-----------------------------|-----------------------------| 


|-----------------------------|-----------------------------|-----------------------------| 
|-----------------------------|-----------------------------|-----------------------------| 
|---------------5---6---------|------8---6---8------------8~|----------5--6--6--8--5------| 
|---8~------8-----------8-----|--8--------------------------|-------8---------------------| 
|-----------------------------|--------------------8~-------|-----------------------------| 
|-----------------------------|-----------------------------|-----------------------------| 


------------------------------------------------------------------------------------------------------------- 

Bridge: 

|-----|-----|-----|-------------|-----|-----|-----|-------------|-----|-----|-----| 
|-----|-----|-----|-------------|-----|-----|-----|-------------|-----|-----|-----| 
|-----|-----|-----|------5------|-----|-----|-----|------5------|-----|-----|-----| 
|--8--|--8--|--8--|--8-------6--|--8--|--8--|--8--|--8-------6--|--8--|--8--|--8~-| 
|-----|-----|-----|-------------|-----|-----|-----|-------------|-----|-----|-----| 
|-----|-----|-----|-------------|-----|-----|-----|-------------|-----|-----|-----| 



------------------------------------------------------------------------------------------------------------- 


THIRD Verse: 

|-----|-----------------------------|-----------------------------|-----------------------------| 
|-----|-----------------------------|-----------------------------|-----------------------------| 
|-----|-----------------------------|---------------5---6---------|--------8---6---5------------| 
|--8~-|---8-8----8----8----8----8~--|----8-8----8-----------8~----|----8---------------8-8-8-8--| 
|-----|-----------------------------|-----------------------------|-----------------------------| 
|-----|-----------------------------|-----------------------------|-----------------------------| 


------------------------------------------------------------------------------------------------------------- 


SECOND Chorus: 


Guitar 1 

|-----------------------------------|---------------------------------|---------------------------------| 
|-----------------------------------|---------------------------------|---------------------------------| 
|-------5---6~--------8-------------|------5---6~----10~----8---6---6-|-5---------------6~--------------| 
|---8-----------------------8-------|--8------------------------------|--------8~---------------8~------| 
|-----------------------------------|---------------------------------|---------------------------------| 
|-----------------------------------|---------------------------------|---------------------------------| 


GUITAR 2 

|-----------------------------------|---------------------------------|---------------------------------| 
|-----------------------------------|---------------------------------|---------------------------------| 
|-----------------------------------|---------------------------------|---------------------------------| 
|---------------------6-----5~----5-|--5---5---4~----4------3---3---3-|-3------3~-------4~------3~------| 
|-----------------------------------|---------------------------------|---------------------------------| 
|-----------------------------------|---------------------------------|---------------------------------| 


------------------------------------------------------------------------------------------------------------- 


OUTRO: 

Guitar 1 

|-----------------------------|-----------------------------|-----------------------------| 
|-----------------------------|-----------------------------|-----------------------------| 
|-----------------------------|---------------8---6---5-----|---------6-----8-----5-------| 
|---8-8----8----8----8----8~--|----------8------------------|--8-----------------------8~-| 
|-----------------------------|-----------------------------|-----------------------------| 
|-----------------------------|-----------------------------|-----------------------------| 


GUITAR 2 

|-----------------------------|-----------------------------|-----------------------------| 
|-----------------------------|-----------------------------|-----------------------------| 
|-----------------------------|-----------------------------|-----------------------------| 
|----------3----3----3----3---|----------3----3-------------|-----------------------------| 
|-----------------------------|-------------------6---4-----|--3------4-----6-----3-------| 
|-----------------------------|-----------------------------|--------------------------6~-| 
 
share this page

See Also: