E-Chords
Ramin Djawadi

The Children(Tabs)

Ramin Djawadi

roll up this ad to continue

Key: D
Intro: 

e|------------------------------------------|------------------------------------------| 
B|------3--------3--------3--------3--------|--3------3-5------5-6--5-6-8--------------| 
G|--------2--3-5---2--3-5---2--3-5---2--3-5-|----2--5-----5--7-----7------7------------| 
D|------0--------0--------0--------0--------|--2--------3--------5---------------------| 
A|------------------------------------------|------------------------------------------| 
D|------------------------------------------|------------------------------------------| 


Verse 

e|--5---------------------3-5-----------1-3-|--0--------0--------0--------0------------| 
B|--3---------3---------6----------3--------|-------1-3------1-3------1-3-------1------| 
G|--2---------------3---5-------------------|----2--------2--------2--------2----------| 
D|--------0------3-------------3------3-----|------------------------------------------| 
A|-----0------1-------------3------1--------|--0--------0--------0--------0------------| 
D|--0-------------------3-------------------|------------------------------------------| 

e|----------------------1p0-3----------1p0--|------------------------------------------| 
B|--8---------1--------------------1--------|--3------1-3------1-3------1-3------------| 
G|--7---------------2-----------------------|--2-2--3---2-2--3---2-2--3---2------------| 
D|--------5------2-------------------2------|------------------------------------------| 
A|-----5------0---------1----------3--------|------------------------------------------| 
D|--5---------------------------------------|--0--------0--------0--------0------------| 


Chorus 

e|--10----------------8-10-8----------------|--5-8-6---------------5-6-5---------------| 
B|------------------------------------10----|--------------------------3---------------| 
G|--10--------10------------------10--------|---------------7-------------------2------| 
D|---------8------------------10------------|------------5-------------------0---------| 
A|------8------------------8----------------|---------5-------------------0------------| 
D|--8---------------------------------------|------5-------------------0---------------| 

e|--1p-0---------------------------3--------|--5---------------------------------------| 
B|------3--------3-----6-----------1--------|--3---------3--------3--------3-----------| 
G|------------3--------7-----------2--------|--2--2--3-5---2--3-5---2--3-5---2--3-5----| 
D|---------3-----------5--------------------|------------------------------------------| 
A|------1--------------------------0--------|------------------------------------------| 
D|---------------------5--------------------|--0---------0--------0--------0-----------| 

e|------------------------------------------|------------------------------------------| 
B|--3-----------------1-3-1-------1---------|------------------------------------------| 
G|---------3--------------------2-----------|--3-----------------2-3-2-----------------| 
D|-------3--------------------2-------------|--------5---------------------3-----------| 
A|--1---------------------0-----------------|-----5---------------------3--------------| 
D|------------------------------------------|--5---------------------3-----------------| 

e|------------------------------------------| 
B|------------3--------6-----------5--------| 
G|------------3--------5-----------2--------| 
D|--3-2-0-----------------------------------| 
A|------1-----------------------------------| 
D|---------------------3-----------2--------| 


Bridge 

e|------0---2---3---------------------------|------0---2-------------------------------| 
B|--3---0---2---5---11------------11--------|--3---0---2---11---10-----------10--------| 
G|--2---------------10---------------10-----|--2-----------10---9---------------9------| 
D|------------------------------8-------8---|------------------------------7------7----| 
A|------------------------------------------|------------------------------------------| 
D|--0---2---4---5---8-----------------------|--0---2---4---8----7----------------------| 

e|------0---2---3---------------------------|------------------------------------------| 
B|--3---0---2---5---13-----------13---------|--13---11---10---8------------------------| 
G|--2---------------12--------------12------|--12---10---9----7---2-------2-------2----| 
D|----------------------------10-------10---|-----------------------0-3-5---0-4-5---0--| 
A|------------------------------------------|------------------------------------------| 
D|--0---2---4---5---10----------------------|--10---8----7----5---0-------0-------0----| 

e|------------------------------------------| 
B|------------------------------------------| 
G|--3-2-0-----------------------------------| 
D|--------3-5-2-3---------------------------| 
A|----------------5-3-----------------------| 
D|------------------------------------------| 


Outro 

These chords could be finger picked in any repeating pattern, as long as it fits the timing.  

e|------------------------------------------|-----------------------------3---5---3----| 
B|--1----------5---------5--------5---------|--10---------5-----------6-----------1----| 
G|--2----------5---------2--------3---------|--9----------2-----------5-----------0----| 
D|--2----------3---------2--------3---------|--7----------2-----------3-----------2----| 
A|--0----------3---------3--------3---------|--7----------3-----------3-----------3----| 
D|-------------3---------2--------2---------|--7----------2-----------3----------------| 

e|-------------5---------5------------------|-----------------3---5--------------------| 
B|--10---------5---------3--------8---------|--10---------6-----------3-----------8----| 
G|--9----------5---------2--------7---------|--9----------5-----------2-----------7----| 
D|--7----------3---------0--------5---------|--7----------3-----------0-----------5----| 
A|--7----------3---------0--------5---------|--7----------3-----------0-----------5----| 
D|--7----------3---------0--------5---------|--7----------3-----------0-----------5----| 

e|-----------------3---5--------------------|-----------------3---5---------------7----| 
B|--10---------6---------3--------8---------|--10---------6-----------3----------------| 
G|--9----------5---------2--------7---------|--9----------5-----------2-----------7----| 
D|--7----------3---------0--------5---------|--7----------3-----------0-----------5----| 
A|--7----------3---------0--------5---------|--7----------3-----------0-----------5----| 
D|--7----------3---------0--------5---------|--7----------3-----------0-----------5----| 

e|--5---------------------------------------| 
B|--5---------------------------------------| 
G|--2---------------------------------------| 
D|--2---------------------------------------| 
A|--0---------------------------------------| 
D|------------------------------------------| 


Don't forget to rate this tab. Thanks! 


************************************ 

| p  pull off 

************************************ 
share this page

See Also: