E-Chords
Ramin Djawadi

Goodbye Brother(Tabs)

Ramin Djawadi

roll up this ad to continue

Tuning: 

e|---------------------------------------------------------------------------| 
B|------3----------3---------3-----------------------------------------------| 
G|---0-------5--3---------0-------5--3--0------------------------------------| 
D|---------------------------------------------------------------------------| 
A|---------------------------------------------------------------------------| 
E|---------------------------------------------------------------------------| 

e|---------------------------------------------------------------------------| 
B|-----3-------3-------------------------------------------------------------| 
G|---0---5--3-----------5--7--8--7--8--7----5--------------------------------| 
D|---------------------------------------------------------------------------| 
A|---------------------------------------------------------------------------| 
E|---------------------------------------------------------------------------| 

e|------10-------8--6----10/15----17-18-20/15----13/15/13--10----------------| 
B|---8-----------------------------------------------------------------------| 
G|---------------------------------------------------------------------------| 
D|---------------------------------------------------------------------------| 
A|---------------------------------------------------------------------------| 
E|---------------------------------------------------------------------------| 

e|---------------------------------------------------------------------------| 
B|---------------------------------------------------------------------------| 
G|---------------------------------------------------------------------------| 
D|------------------------------------5--------------------------------------| 
A|---3---5---6-------3---5----------------5---6----------5---6---5-----------| 
E|---------------------------3-----------------------------------------------| 

e|---------------------------------------------------------------------------| 
B|---------------------------------------------------------------------------| 
G|---------------------------------------------------------------------------| 
D|---5---7---8-------5---7---0-----------------------------------------------| 
A|---------------------------------------------------------------------------| 
E|---------------------------------------------------------------------------| 


e|---------------------------------------------------------------------------| 
B|---------------------------------------------------------------------------| 
G|---------------------------------------------------------------------------| 
D|---------------------------------------------------------------------------| 
A|-------5------3------------------------------------------------------------| 
E|---3--------------6---3----------------------------------------------------|  
share this page

See Also: