E-Chords
Pup

Bloody Mary Kate And Ashley(Tabs)

Pup

roll up this ad to continue

Key: D#
D#|-9---9---9---12--12--12--|-9---9---9---12--12--|-14----------------|-------12---| 
A#|-11--11--11--11--11--11--|-11--11--11--11--11--|------15---14------|------------| 
F#|-------------------------|---------------------|---------------14--|-15---------| 
C#|-------------------------|---------------------|-------------------|------------| 
G#|-------------------------|---------------------|-------------------|------------| 
D#|-------------------------|---------------------|-------------------|------------| 


D#|-------------------|-------12---|-14----------------|-------12---|-------------------| 
A#|-15---12-----------|------------|------15---14------|------------|-15---12-----------| 
F#|-----------12--11--|-15---------|---------------14--|-15---------|-----------12--11--| 
C#|-------------------|------------|-------------------|------------|-------------------| 
G#|-------------------|------------|-------------------|------------|-------------------| 
D#|-------------------|------------|-------------------|------------|-------------------| 


D#|-------------------------|-------------------------| 
A#|-------------------------|-------------------------| 
F#|-10------10--12------12--|-11----------------------| 
C#|-----12----------14------|-------------------------| 
G#|-------------------------|-------------------------| 
D#|-------------------------|-------------------------| 
share this page

See Also: