E-Chords
Punch Brothers

You Are(Tabs)

Punch Brothers

roll up this ad to continue

This is the intro for You Are off of Antifogmatic. 

e|--------2--------1-------|------1--------0-------|------0------------------| 
B|-------------------------|-----------------------|---------------3---------| 
G|--2--------2--0--------2-|0--------2--0--------2-|---------2---------------| 
D|-------------------------|-----------------------|4-----------4------------| 
A|-----4--------------4----|---3--------------3----|---2---------------------| 
E|-------------------------|-----------------------|-------------------------| 

e|-------------------------| 
B|-------------------------| 
G|-------------------------| 
D|-----------0--0--2--2--4-| 
A|--0--2--2----------------| 
E|-------------------------| 

Plays through 2.5 times 
share this page

See Also: