E-Chords
Punch Brothers

Flippenthe Flip(Tabs)

Punch Brothers

roll up this ad to continue

Key: B
A (mandolin/acoustic only) x2 
B (mandolin/acoustic only) x2 

A (full band) x2 
B (full band) x2 

Bridge 

A (guitar solo) x2 
B (guitar solo) x2 

A (full band) x2 
B (full band) x2 



  

Guitar Solo Tab 

 A section: 

e|---------------------------------------------------------------------------| 
B|---------------------------------------------------------------------------| 
G|---------------------------------------------------------------------------| 
D|-0h2--0-----------------2-------2------4---2----------0h2-0-----5-4--------| 
A|--------3-2-0---0h2-2h3---3-0-4--4-0-5---5------------0-----3-0-3-2--------| 
E|--------------0------------------------------------------------------------| 

e|-------------------0-------------------0-------0-------2-------------------| 
B|----------0-1--1-3---3-1-0-------0---1---1---2---2---3---3-3/5-------------| 
G|---0-2--2------------------2---2---2-------2-------2-----------------------| 
D|-4---------------------------2---------------------------------------------| 
A|---------------------------------------------------------------------------| 
E|---------------------------------------------------------------------------| 

e|-------------------------------------0-------------------------------------| 
B|-5-5-1-0---------------1-0h1p0---------------------------------------------| 
G|---------0---0---0---2---------2-1-2---2-----------------------------------| 
D|---------------------------------------------------------------------------| 
A|-----------3---2---0-------------------------------------------------------| 
E|---------------------------------------------------------------------------| 

 B section: 

e|-0-2-3-3-22----------------------------------------------------------------| 
B|-------3-33-55-22----------------------------------------------------------| 
G|------------55-22-44-22----------------------0-0h2p0---0-2h4--4-2h4p2------| 
D|------------------55-44-2-------2------0-------------4----------------4-0--| 
A|--------------------------4-0-4---4-0-------------------------------------2| 
E|-----------------------------------------0h3------------------------------0| 

e|---------------------------------------------------------------------------| 
B|---------------------------------------------------------------------------| 
G|----------------------------------------------0h2p0------------------------| 
D|-------2-44-22----------2-------2------0------------4-0-0h2p0--------------| 
A|-0-2-3-3-55-33-44-22-00---4-0-4---4-0-------------------------4-0-4h5p4p0-7| 
E|---------------55-33-22------------------0h3------------------------------5| 




************************************ 

| /   slide up 
| \   slide down 
| h   hammer-on 
| p   pull-off 
| ~   vibrato 
| +   harmonic 
| x   Mute note 
| b   Bend 
| pb  Pre-bend 
| br  Bend release 
| pbr Pre-bend release 
| brb Bend release bend 

************************************ 
share this page

See Also: