E-Chords
Pulled Apart By Horses

Yeah Buddy(Tabs)

Pulled Apart By Horses

roll up this ad to continue

Key: D
Tuning: Drop D 

Intro/verse 1  
e|---------------------------------------------------------| x5 
B|-10-10------11-11--------------10-10-----13-13-----------| 
G|-10-10------10-10--------------10-10-----12-12-----------| 
D|-------8-8---------------------------8-8-----------------| 
A|-------8-8---------------------------8-8--------8--------| 
D|-------8-8--------0-10-0-10h12-------8-8-------0-0-10h12-| 

pre-chorus... 
e|-------------------------------| 
B|-------------------------------| 
G|-------------------------------| 
D|-------------------------------| 
A|-------------------------------| 
D|-0-10-0-10h12------------------| 

chorus 
e|-------------------------------------------------------------------------| 
B|-------------------------------------------------------------------------| 
G|-------------------------------------------------------------------------| 
D|-12-12-12-12-12-12-12-12-0-0-0-5-5-5-7-7-8-8-8-8-8-8-8-8-8-8-8-8-8-8-8-8-| 
A|-12-12-12-12-12-12-12-12-0-0-0-5-5-5-7-7-8-8-8-8-8-8-8-8-8-8-8-8-8-8-8-8-| 
D|-12-12-12-12-12-12-12-12-0-0-0-5-5-5-7-7-8-8-8-8-8-8-8-8-8-8-8-8-8-8-8-8-| 


e|------------------------------------------------------------------| 
B|------------------------------------------------------------------| 
G|------------------------------------------------------------------| 
D|-7-7-7-7-7-7-7-7-0-0-0-5-5-5-6-6-7-7-7-7-7-7-7-7-7-7-7-7-7-7-7-7--| 
A|-7-7-7-7-7-7-7-7-0-0-0-5-5-5-6-6-7-7-7-7-7-7-7-7-7-7-7-7-7-7-7-7--| 
D|-7-7-7-7-7-7-7-7-0-0-0-5-5-5-6-6-7-7-7-7-7-7-7-7-7-7-7-7-7-7-7-7--| REPEAT 

verse 2 

e|---------------------------------------------------------|  
B|-10-10------11-11--------------10-10-----13-13-----------| 
G|-10-10------10-10--------------10-10-----12-12-----------| 
D|-------12\---------------------------12\-----------------| 
A|-------12\---------------------------12\--------8--------| 
D|-------12\--------0-10-0-10h12-------12\-------0-0-10h12-| 

e|---------------------------------------------------------|  
B|-10-10------11-11--------------10-10-----13-13-----------| 
G|-10-10------10-10--------------10-10-----12-12-----------| 
D|-------12\---------------------------12\-----------------| 
A|-------12\---------------------------12\--------8--------| 
D|-------12\--------0-10-0-10h12-------12\-------0-0-10h12-| 

e|---------------------------------------------------------|  
B|-10-10------11-11--------------10-10-----13-13-----------| 
G|-10-10------10-10--------------10-10-----12-12-----------| 
D|-------12\---------------------------12\-----------------| 
A|-------12\---------------------------12\--------8--------| 
D|-------12\--------0-10-0-10h12-------12\-------0-0-10h12-| 

e|----------------------------------------------|  
B|-10-10------11-11-----------------------------| 
G|-10-10------10-10-----------------------------| 
D|-------12\------------------------------------| 
A|-------12\------------------------------------| 
D|-------12\--------0-10-0-10h12--0-10-0-10h12--| 

chorus 
e|-------------------------------------------------------------------------| 
B|-------------------------------------------------------------------------| 
G|-------------------------------------------------------------------------| 
D|-12-12-12-12-12-12-12-12-0-0-0-5-5-5-7-7-8-8-8-8-8-8-8-8-8-8-8-8-8-8-8-8-| 
A|-12-12-12-12-12-12-12-12-0-0-0-5-5-5-7-7-8-8-8-8-8-8-8-8-8-8-8-8-8-8-8-8-| 
D|-12-12-12-12-12-12-12-12-0-0-0-5-5-5-7-7-8-8-8-8-8-8-8-8-8-8-8-8-8-8-8-8-| 


e|------------------------------------------------------------------| 
B|------------------------------------------------------------------| 
G|------------------------------------------------------------------| 
D|-7-7-7-7-7-7-7-7-0-0-0-5-5-5-6-6-7-7-7-7-7-7-7-7-7-7-7-7-7-7-7-7--| 
A|-7-7-7-7-7-7-7-7-0-0-0-5-5-5-6-6-7-7-7-7-7-7-7-7-7-7-7-7-7-7-7-7--| 
D|-7-7-7-7-7-7-7-7-0-0-0-5-5-5-6-6-7-7-7-7-7-7-7-7-7-7-7-7-7-7-7-7--| REPEAT 

this bit 
  pm 
e|------------------------------| 
B|------------------------------| 
G|------------------------------| 
D|-3-3-3-0-0-0-5-5-5-6-6-6-7-7--| 
A|-3-3-3-0-0-0-5-5-5-6-6-6-7-7--| 
D|-3-3-3-0-0-0-5-5-5-6-6-6-7-7--| 
   
'8 HUNDRED POUNDS' 

e|------------------------------| 
B|------------------------------| 
G|------------------------------|  
D|-3-3-3-0-0-0-5-5-5-6-6-6-7-7--| x10 
A|-3-3-3-0-0-0-5-5-5-6-6-6-7-7--| 
D|-3-3-3-0-0-0-5-5-5-6-6-6-7-7--| 

then... 
e|-------------------------------------------------------------------------| 
B|-------------------------------------------------------------------------| 
G|-------------------------------------------------------------------------| 
D|-12-12-12-12-12-12-12-12-13-12-12-13-12-12-13-12-12-12-12-12-12-12-12-12-| 
A|-12-12-12-12-12-12-12-12-13-12-12-13-12-12-13-12-12-12-12-12-12-12-12-12-| 
D|-12-12-12-12-12-12-12-12-13-12-12-13-12-12-13-12-12-12-12-12-12-12-12-12-| 

e|-----------------------------------------------------| 
B|-----------------------------------------------------| 
G|-----------------------------------------------------| 
D|-13-12-12-13-12-12-13-12-12-12-12-12-12-12-12-12-12--| 
A|-13-12-12-13-12-12-13-12-12-12-12-12-12-12-12-12-12--| 
D|-13-12-12-13-12-12-13-12-12-12-12-12-12-12-12-12-12--| 

e|-----------------------------------------------------| 
B|-----------------------------------------------------| 
G|-----------------------------------------------------| 
D|-13-12-12-13-12-12-13-12-12-12-12-12-12-12-12-12-12--| 
A|-13-12-12-13-12-12-13-12-12-12-12-12-12-12-12-12-12--| 
D|-13-12-12-13-12-12-13-12-12-12-12-12-12-12-12-12-12--| 

e|---------------------------| 
B|---------------------------| 
G|---------------------------| 
D|-13-12-12-13-12-12-13-12\--| 
A|-13-12-12-13-12-12-13-12\--| 
D|-13-12-12-13-12-12-13-12\--| 

pm from here 

e|----------------------------------| 
B|----------------------------------| 
G|----------------------------------| 
D|-0-0-0-0-0-0-0-0-1-0-0-1-0-0-1-0--| 
A|-0-0-0-0-0-0-0-0-1-0-0-1-0-0-1-0--| 
D|-0-0-0-0-0-0-0-0-1-0-0-1-0-0-1-0--| 

e|----------------------------------| 
B|----------------------------------| 
G|----------------------------------| 
D|-0-0-0-0-0-0-0-0-1-0-0-1-0-0-1-0--| 
A|-0-0-0-0-0-0-0-0-1-0-0-1-0-0-1-0--| 
D|-0-0-0-0-0-0-0-0-1-0-0-1-0-0-1-0--| 


e|----------------------------------| 
B|----------------------------------| 
G|----------------------------------| 
D|-0-0-0-0-0-0-0-0-1-0-0-1-0-0-1-0--| 
A|-0-0-0-0-0-0-0-0-1-0-0-1-0-0-1-0--| 
D|-0-0-0-0-0-0-0-0-1-0-0-1-0-0-1-0--| 

e|-----------------------------------------------| 
B|-----------------------------------------------| 
G|-----------------------------------------------| 
D|-0-0-0-0-0-0-0-0-1-0-0-1-0-0-1-0-0-1-0-0-1-0-0-| 
A|-0-0-0-0-0-0-0-0-1-0-0-1-0-0-1-0-0-1-0-0-1-0-0-| 
D|-0-0-0-0-0-0-0-0-1-0-0-1-0-0-1-0-0-1-0-0-1-0-0-| 

 
share this page

See Also: