E-Chords
Pulled Apart By Horses

roll up this ad to continue

Key: E
Intro 
e|----------------------| 
B|----------------------| 
G|-------5p0------------| 
D|----7------7-5-7p5----| x4 
A|----7------7-5-7p5----| 
D|----7------7-5-7p5----| 

e|----------------------------------| 
B|----------------------------------| 
G|-----3p0------------6p0-----------| 
D|--5------5-3-5p3--8-----8-6-8p6---| 
A|--5------5-3-5p3--8-----8-6-8p6---| 
D|--5------5-3-5p3--8-----8-6-8p6---| 

e|----------------------| 
B|----------------------| 
G|-------5p0------------| 
D|----7------7-5-7p5----| x2 
A|----7------7-5-7p5----| 
D|----7------7-5-7p5----| 



Verse 
e|--------------------| 
B|--10-12bu-10--8-10--| 
G|--------------------| 
D|--------------------| x4 
A|--------------------| 
D|--------------------| 

e|-------------------------------------| 
B|--8-10bu-8--6-8----11-13bu-11--9-11--| 
G|-------------------------------------| 
D|-------------------------------------| 
A|-------------------------------------| 
D|-------------------------------------| 

e|--------------------| 
B|--10-12bu-10--8-10--| 
G|--------------------| 
D|--------------------| x2 
A|--------------------| 
D|--------------------| 


Repeat Verse 


Chorus 
e|--------------------| 
B|--------------------| 
G|--------------------| 
D|--7--13-12-10--7-0--| x3 
A|--7--13-12-10--7-0--| 
D|--7--13-12-10--7-0--| 
    V  E  N  O   M 

e|--------------+9----| 
B|--------------+9----| 
G|--------------+9----| 
D|--7-5-7--10~--------| 
A|--7-5-7--10~--------| 
D|--7-5-7--10~--------| 

Repeat Chorus 



Second Verse 
     slow your breathing     you havent got a pulse 
e|---------------------------------------------------| 
B|--10~---------------------10~----------------------| 
G|---------------------------------------------------| 
D|---------------------------------------------------| 
A|---------------------------------------------------| 
D|---------------------------------------------------| 

e|---------------------------------------------------| 
B|-10\8-8~----------8\6-6~---------6\5-5~------------| 
G|---------------------------------------------------| 
D|---------------------------------------------------| 
A|---------------------------------------------------| 
D|---------------------------------------------------| 

e|----------------------| 
B|----------------------| 
G|-------5p0------------| 
D|----7------7-5-7p5----| x4 
A|----7------7-5-7p5----| 
D|----7------7-5-7p5----| 

e|----------------------------------| 
B|----------------------------------| 
G|-----3p0------------6p0-----------| 
D|--5------5-3-5p3--8-----8-6-8p6---| 
A|--5------5-3-5p3--8-----8-6-8p6---| 
D|--5------5-3-5p3--8-----8-6-8p6---| 

e|----------------------| 
B|----------------------| 
G|-------5p0------------| 
D|----7------7-5-7p5----| x2 
A|----7------7-5-7p5----| 
D|----7------7-5-7p5----| 


Chorus two 
e|--------------------| 
B|--------------------| 
G|--------------------| 
D|--7--13-12-10--7-0--| x3 
A|--7--13-12-10--7-0--| 
D|--7--13-12-10--7-0--| 
    V  E  N  O   M 

e|--------------+9----| 
B|--------------+9----| 
G|--------------+9----| 
D|--7-5-7--10~--------| 
A|--7-5-7--10~--------| 
D|--7-5-7--10~--------| 

e|--------------------| 
B|--------------------| 
G|--------------------| 
D|--7--13-12-10--7-0--| x3 
A|--7--13-12-10--7-0--| 
D|--7--13-12-10--7-0--| 
    V  E  N  O   M 


bridge/breakdown part 
e|-------------------------------------| 
B|-------------------------------------| 
G|-------------------------------------| 
D|-------------------------------------| 
A|-------------------------------------| 
D|--7-5-7--10~---7-10-10/12~--15--17---| 

e|-----------------------------------------------------| 
B|-----------------------------------------------------| 
G|-----------------------------------------------------| 
D|-------------------------------------1-1-----1-1-----| 
A|-------------------------------------1-1-0-0-1-1-0-0-| 
D|--5-7-7--5-7-7/10~----7-10-10/12~----1-1-0-0-1-1-0-0-| 
                                           * *     * * 
e|--------------------------------------------| 
B|--------------------------------------------| 
G|--------------------------------------------| 
D|----7-7--5-7-7/10~----7-10-10/12~---15--17--| 
A|--5-7-7--5-7-7/10~----7-10-10/12~---15--17--| 
D|--5-7-7--5-7-7/10~----7-10-10/12~---15--17--| 

e|-----------------------------------------------------| 
B|-----------------------------------------------------| 
G|-----------------------------------------------------| 
D|--5-7-7--5-7-7/10--------------------1-1-----1-1-----| 
A|--5-7-7--5-7-7/10-----7-10-10/12~----1-1-0-0-1-1-0-0-| 
D|--5-7-7--5-7-7/10~----7-10-10/12~----1-1-0-0-1-1-0-0-| 
                                           * *     * * 
e|-----------------------------------| 
B|-----------------------------------| 
G|-----------------------------------| 
D|--5-7------------------------------| 
A|--5-7-7-7-7-7-7-7-7-7-7-7-7-7-7-7--| 
D|--5-7-7-7-7-7-7-7-7-7-7-7-7-7-7-7--| 
        * * * * * * * * * * * * * * 
e|------------------------------------| 
B|------------------------------------| 
G|------------------------------------| 
D|--7---------------------------------| x3 
A|--7-7-7-7-7-7-7-7-7-7-7-7-7-7-7-7-7-| 
D|--7-7-7-7-7-7-7-7-7-7-7-7-7-7-7-7-7-| 
      * * * * * * * * * * * * * * * * 

e|------------------------------------| 
B|------------------------------------| 
G|------------------------------------| 
D|--7---------------------------------| x3 
A|--7-7-7-7-7-7-7-7-7-7-7-7-7-7-7-7-7-| 
D|--7-7-7-7-7-7-7-7-7-7-7-7-7-7-7-7-7-| 


e|------------------------------------| 
B|------------------------------------| 
G|------------------------------------| 
D|--7---------------------------------| 
A|--7-7-7-7-7-7-7-7-7-7-13-12-10-7-0--| 
D|--7-7-7-7-7-7-7-7-7-7-13-12-10-7-0--| 

e|------------------------------------| 
B|------------------------------------| 
G|-----------------------5p0----------| 
D|------------------------------------| x4 
A|--7-7-7-7-7-7-7-7-7-7-7-7-7-7-7-7-7-| 
D|--7-7-7-7-7-7-7-7-7-7-7-7-7-7-7-7-7-| 


End Chorus 
e|--------------------| 
B|--------------------| 
G|--------------------| 
D|--7--13-12-10--7-0--| x5 
A|--7--13-12-10--7-0--| 
D|--7--13-12-10--7-0--| 
    V  E  N  O   M 

e|--------------+9----| 
B|--------------+9----| 
G|--------------+9----| 
D|--7-5-7--10~--------| 
A|--7-5-7--10~--------| 
D|--7-5-7--10~--------| 

e|--------------------| 
B|--------------------| 
G|--------------------| 
D|--7--13-12-10--7-0--| x3 
A|--7--13-12-10--7-0--| 
D|--7--13-12-10--7-0--| 
    V  E  N  O   M 
e|---------------------------------------------| 
B|---------------------------------------------| 
G|---------------------------------------------| 
D|--7-5-7--10~---7-10-10/12~--1-1-----1-1------| 
A|--7-5-7--10~---7-10-10/12~--1-1-0-0-1-1-0-0--| 
D|--7-5-7--10~---7-10-10/12~--1-1-0-0-1-1-0-0--| 
                                  * *     * *  
e|----------------------------| 
B|----------------------------| 
G|----------------------------| 
D|--5-7--7~~~~~~~~~~~~~~-\----| 
A|--5-7--7~~~~~~~~~~~~~~-\----| 
D|--5-7--7~~~~~~~~~~~~~~-\----|  
share this page

See Also: