E-Chords
Public Service Broadcasting
Tuning: Standard (EADGBE) 

(0:04) 

e|---------------------------------------------------------------------------| 
B|---------------------------------------------------------------------------| 
G|-------------------------------3-------------------------------------------| 
D|---------4----(x8)------------------(x8)-----------------------------------| 
A|---------------------------------------------------------------------------| 
E|-0p2-2-----------------0p2-2-----------------------------------------------| 


Solo Riff (1:13) 

e|---------------------------------------------------------------------------| 
B|-------7h8h7------------------------7h8h7--------7-10h8-7------------------| 
G|--8h9--------9--8h9--6---------8h9--------9--8h9---------------------------| 
D|------------------------7h6-4----------------------------------------------| 
A|---------------------------------------------------------------------------| 
E|---------------------------------------------------------------------------| 

e|---------------------------------------------------------------------------| 
B|-------7h8h7---------------------------------------------------------------| 
G|--8h9--------9--8h9--6---------8-9----8-9---8-9----8-9----10-9-------------| 
D|------------------------7h6-4----------------------------------9~----------| 
A|-----------------------------------9------9-----9------9-------------------| 
E|---------------------------------------------------------------------------| 

Power chords (1:26) 

e|---------------------------------------------------------------------------| 
B|---------------------------------------------------------------------------| 
G|--6--6--6--6--\--4--4--4--4------------------------------------------------| 
D|--6--6--6--6--\--4--4--4--4------------------------------------------------| 
A|--4--4--4--4--\--2--2--2--2------------------------------------------------| 
E|---------------------------------------------------------------------------|  

roll up this ad to continue

share this page

See Also: