E-Chords
Probot

Sweet Dreams(Tabs)

Probot

 
Intro - Guitar 1 (Clean).  
E|----------------------------------| 
B|----------------------------------| 
G|--0--0---0--0---0-----3-----------| 8x 
D|-0--0---0--0--0--0--1--1----------| 
A|---------------0--0--1--1---------| 
D|5--8--10--3--2-----1--------------| 
 
        Guitar 2 (distortion) 
E|----------------------------------| 
B|----------------------------------| 
G|----------------------------------|  
D|----------------------------------| 
A|----------------------------------| 
D|3-5~------------------------------| 
 
Pre-verse - Guitar 2. 
E|----------------------------------| 
B|----------------------------------| 
G|----------------------------------| 1x 
D|000000000000-10101010101010-------| 
A|000000000000-10101010101010-------| 
D|000000000000-10101010101010-------| 
  -----PM-----  
 
Verse 
E|-----------------------------------------------------| 
B|-----------------------------------------------------| 
G|-----------------------------------------------------| 4x 
D|3-55555-3-55-3-55-11111111-10-8-11-10-8-5------------| 
A|3-55555-3-55-3-55-11111111-10-8-11-10-8-5-00---------| 
D|3-55555-3-55-3-55-11111111-10-8-11-10-8-5-00---------| 
                    --11x4--                --PM 
 
Chorus (Guitar 1 plays intro riff. Guitar two plays this) 
E|-----------------------------------------| 
B|-----------------------------------------| 
G|-----------------------------------------| 6x 
D|555-888-101010-333-222222-111111---------| 
A|555-888-101010-333-222222-111111---------| 
D|555-888-101010-333-222222-111111---------| 
          -10x3-            -1x6-- 
 
 
Pre-verse - Guitar 2. 
E|----------------------------------| 
B|----------------------------------| 
G|----------------------------------| 1x 
D|000000000000-10101010101010-------| 
A|000000000000-10101010101010-------| 
D|000000000000-10101010101010-------| 
  -----PM-----  
 
Verse (During which Guitar 1 plays solo) 
E|-----------------------------------------------------| 
B|-----------------------------------------------------| 
G|-----------------------------------------------------| 4x 
D|3-55555-3-55-3-55-11111111-10-8-11-10-8-5------------| 
A|3-55555-3-55-3-55-11111111-10-8-11-10-8-5-00---------| 
D|3-55555-3-55-3-55-11111111-10-8-11-10-8-5-00---------| 
                    --11x4--                --PM 
 
Bridge - Guitar 2  
E|-----------------------------------------------------| 
B|-----------------------------------------------------| 
G|-----------------------------------------------------|  
D|88-1010101010101010101010-131313131313131313131313---| 
A|88-1010101010101010101010-131313131313131313131313---| 
D|88-1010101010101010101010-131313131313131313131313---| 
							  1x 
E|-----------------------------------------------------| 
B|-----------------------------------------------------| 
G|-----------------------------------------------------| 
D|-101010101010101010101010-131313131313-151515151515--| 
A|-101010101010101010101010-131313131313-151515151515--| 
D|-101010101010101010101010-131313131313-151515151515--| 
 
 
Riff 4 - Guitar 2 
E|--------------------------------------------| 
B|--------------------------------------------| 
G|--------------------------------------------| 4x 
D|555-888-101010-333-222222-111111-10-8-------| 
A|555-888-101010-333-222222-111111-10-8-------| 
D|555-888-101010-333-222222-111111-10-8-------| 
                            -11x3- 
                            -----------On 4th time this leads into verse 
  
Verse  
E|-----------------------------------------------------| 
B|-----------------------------------------------------| 
G|-----------------------------------------------------| 7x 
D|3-55555-3-55-3-55-11111111-10-8-11-10-8-5------------| 
A|3-55555-3-55-3-55-11111111-10-8-11-10-8-5-00---------| 
D|3-55555-3-55-3-55-11111111-10-8-11-10-8-5-00---------| 
                    --11x4--                --PM 
 
Riff 5 - Guitar 2  
E|-----------------------------------------------------| 
B|-----------------------------------------------------| 
G|-----------------------------------------------------| 1x 
D|3-55555-3-55-3-55-11111111-10-8-11-10-8-5~-----------| 
A|3-55555-3-55-3-55-11111111-10-8-11-10-8-5~-----------| 
D|3-55555-3-55-3-55-11111111-10-8-11-10-8-5~-----------| 
                    --11x4--              -Let ring   
                   
                    -------played slower----- 
 
 
_______________________________________________________ 
Contribuição: Felipe Decker([email protected]) 

roll up this ad to continue

share this page

See Also: