E-Chords
Probot

Shake Your Blood(Tabs)

Probot

 
Riff 01: 
 
e|----------------------- 
B|----------------------- 
G|----------------------- 
D|-8-----8-----8--------- 
A|-6--8--6--8--6-8------- 
E|----6-----6----6------- 
 
Riff 02: 
 
e|--------------------------- 
B|--------------------------- 
G|--------------------------- 
D|--------------------------- 
A|-10-10-10-//-----6--------- 
E|-8--8--8--//-6-8----------- 
 
Riff 03: 
 
e|----------------------------------------------- 
B|----------------------------------------------- 
G|----------------------------------------------- 
D|--8--8-8-8---10--10-10-10---------------------- 
A|--6--6-6-6---8---8--8--8----10-10-10-//-----6-- 
E|----------------------------8--8--8--//-6-8---- 
 
Riff 04: 
 
e|------------------------------------------ 
B|------------------------------------------ 
G|------------------------------------------ 
D|---------------10--10-10-10--8---8---8---- 
A|-10--10-10-10--8---8--8--8---6-8-6-8-6-8-- 
E|-8---8--8--8-------------------6---6---6-- 
 
In the Bass Solo: 
 
Guitar: 
e|----------------------- 
B|----------------------- 
G|----------------------- 
D|----------------------- 
A|-10-~~----------------- 
E|-8--~~----------------- 
 
Bass: 
G|------------------------- 
D|------------------------- 
A|---------------7876------ 
E|-888-876787678------876-- 
 
 
The music... 
 
Riff 01 (x2) 
Riff 02 (x16) 
Riff 03 (x2) 
Riff 02 (x1) 
Riff 01 (x1) 
Riff 02 (x8) 
Riff 03 (x2) 
Riff 02 (x1)  
Riff 04 (x4) 
Riff 01 (x1) 
Bass Solo 
Riff 03 (x4) 
Riff 02 (x4) 
Riff 01 (x1) 
 
 
_______________________________________________________ 
Contribuição: ([email protected]) 

roll up this ad to continue

share this page

See Also: