E-Chords
Plus-44

Cliff Diving(Tabs)

Plus-44

Introdução 
Guitarra 1  
(2x) 
e-------------------------------------------------------| 
B-------------------------------------------------------| 
G-----------4-------------------5-----------------------| 
D-5---------4-15x-----2---------5-15x-------------------| 
A-5-15x-----2---------2-15x-----3-----------------------| 
E-3-------------------0---------------------------------| 
 
Guitarra 2  
(2x) 
e-----------------------------------------------------------------| 
B-8-8-8-8-8-8-8-8-8-8-8-8-8-8-8-8-7-7-7-7-7-7-7-5-5-5-5-5-5-5-5-5-| 
G-----------------------------------------------------------------| 
D-----------------------------------------------------------------| 
A-----------------------------------------------------------------| 
E-----------------------------------------------------------------| 
 
e-----------------------------------------------------------------| 
B-3-3-3-5-5-5-5-5-5-5-5-5-5-5-5-5-3-3-3-5-5-5-1-1-1-1-1-1-1-1-1-8-| 
G-----------------------------------------------------------------| 
D-----------------------------------------------------------------| 
A-----------------------------------------------------------------| 
E-----------------------------------------------------------------| 
 
 
Verso 1. 
  
(2x) 
e-------------------------------------------------------| 
B-------------------------------------------------------| 
G-------------------------------------------------------| 
D-5-----4-----2-----10----------------------------------| 
A-5-15x-4-15x-2-15x-10-15x------------------------------| 
E-3-----2-----0------8----------------------------------| 
Silly girl, I think I've got a thing for you. 
We'll make nice by driving in this stolen car, 
We're usually wasted living in this desert town, 
Haven?t broken us so far 
 
(2x) 
e-------------------------------------------------------| 
B-------------------------------------------------------| 
G-------------------------------------------------------| 
D-5-----4-----2-----10----------------------------------| 
A-5-15x-4-15x-2-15x-10-15x------------------------------| 
E-3-----2-----0------8----------------------------------| 
Hot afternoons we climb up to the neighbors house, 
Think deep, or jump into a radiant sky, 
Our bare feet were framed on the horizon, 
I felt the future in your eyes. 
 
Refrão 
e-------------------------------------------------------| 
B-------------------------------------------------------| 
G-5-----------------------------------------------------| 
D-5-1x--5-----2-----------------------------------------| 
A-3-----5-2x--2-8x--------------------------------------| 
E-------3-----0-----------------------------------------| 
It was the promise of summer 
 
e-------------------------------------------------------| 
B-------------------------------------------------------| 
G-5-----------------------------------------------------| 
D-5-1x--5-----2-----------------------------------------| 
A-3-----5-2x--2-8x--------------------------------------| 
E-------3-----0-----------------------------------------| 
We?ll seal it with a kiss 
 
e-------------------------------------------------------| 
B-------------------------------------------------------| 
G-5-----------------5-----------------------------------| 
D-5-1x--5-----2-----5?9x--------------------------------| 
A-3-----5-2x--2-8x--3-----------------------------------| 
E-------3-----0-----------------------------------------| 
This time I'll do things proper, 
How did it get to this? 
 
 
Introdução de novo 
Guitarra 1 
e-------------------------------------------------------| 
B-------------------------------------------------------| 
G-----------4-------------------5-----------------------| 
D-5---------4-15x-----2---------5-15x-------------------| 
A-5-15x-----2---------2-15x-----3-----------------------| 
E-3-------------------0---------------------------------| 
 
Guitarra 2 
e-----------------------------------------------------------------| 
B-8-8-8-8-8-8-8-8-8-8-8-8-8-8-8-8-7-7-7-7-7-7-7-5-5-5-5-5-5-5-5-5-| 
G-----------------------------------------------------------------| 
D-----------------------------------------------------------------| 
A-----------------------------------------------------------------| 
E-----------------------------------------------------------------| 
 
e-----------------------------------------------------------------| 
B-3-3-3-5-5-5-5-5-5-5-5-5-5-5-5-5-3-3-3-5-5-5-1-1-1-1-1-1-1-1-1-8-| 
G-----------------------------------------------------------------| 
D-----------------------------------------------------------------| 
A-----------------------------------------------------------------| 
E-----------------------------------------------------------------| 
 
Verso 2.  
(2x) 
e----------------------------------------------------------| 
B----------------------------------------------------------| 
G----------------------------------------------------------| 
D-5------4------2------10----------------------------------| 
A-5-15x--4-15x--2-15x--10-15x------------------------------| 
E-3------2------0-------8----------------------------------| 
Dear you, tonight lets get ahead of ourselves, 
Passed Out, barely can remember 
Yesterday we stretched out for so long. 
Tomorrow seems like forever. 
 
(2x) 
e----------------------------------------------------------| 
B----------------------------------------------------------| 
G----------------------------------------------------------| 
D-5------4------2------10----------------------------------| 
A-5-15x--4-15x--2-15x--10-15x------------------------------| 
E-3------2------0-------8----------------------------------| 
My God, you know how much I needed this. 
These days, are filled with such disaster 
Try to think, that ?life will never be the same? 
Doesn?t think of the answer 
 
(And She Said?) 
 
Refrão 
e-------------------------------------------------------| 
B-------------------------------------------------------| 
G-5-----------------------------------------------------| 
D-5-1x--5-----2-----------------------------------------| 
A-3-----5-2x--2-8x--------------------------------------| 
E-------3-----0-----------------------------------------| 
It was the promise of summer 
 
e-------------------------------------------------------| 
B-------------------------------------------------------| 
G-5-----------------------------------------------------| 
D-5-1x--5-----2-----------------------------------------| 
A-3-----5-2x--2-8x--------------------------------------| 
E-------3-----0-----------------------------------------| 
We?ll seal it with a kiss 
 
e-------------------------------------------------------| 
B-------------------------------------------------------| 
G-5-----------------5-----------------------------------| 
D-5-1x--5-----2-----5?15x-------------------------------| 
A-3-----5-2x--2-8x--3-----------------------------------| 
E-------3-----0-----------------------------------------| 
This time I'll do things proper, 
How did it get to this? 
 
e-------------------------------------------------------| 
B-------------------------------------------------------| 
G-5-----------------------------------------------------| 
D-5-2x--5-----2-----------------------------------------| 
A-3-----5-2x--2-8x--------------------------------------| 
E-------3-----0-----------------------------------------| 
It was the promise of summer 
 
 
e-------------------------------------------------------| 
B-------------------------------------------------------| 
G-5-----------------------------------------------------| 
D-5-2x--5-----2-----------------------------------------| 
A-3-----5-2x--2-8x--------------------------------------| 
E-------3-----0-----------------------------------------| 
We?ll seal it with a kiss 
 
 
e-------------------------------------------------------| 
B-------------------------------------------------------| 
G-5-----------------5-----------------------------------| 
D-5-2x--5-----2-----5?9x--------------------------------| 
A-3-----5-2x--2-8x--3-----------------------------------| 
E-------3-----0-----------------------------------------| 
This time I'll do things proper, 
How did it get to this? 
 
 
Guitarra 1. 
(2x) 
e-------------------------------------| 
B--7-7-7--9-9-9-9-9-9--4?4-4--5-5-5-5-|  
G-------------------------------------| 
D-------------------------------------| 
A-------------------------------------| 
E-------------------------------------| 
 
Guitarra 2. 
(2x) 
e--------------------------| 
B-10-----10------8-----8---|  
G---7-------7------7-----7-| 
D--------------------------| 
A--------------------------| 
E--------------------------| 
 
Guitarra 1. 
(2x) 
e----------------------------------------------| 
B--10-10-10--12-12-12-12-12-12--7-7-7-8-8-8-8--|  
G----------------------------------------------| 
D----------------------------------------------| 
A----------------------------------------------| 
E----------------------------------------------| 
 
Guitarra 2. 
(2x) 
e--------------------------|   
B-10-----10------8-----8---|  
G---7-------7------7-----7-| 
D--------------------------| 
A--------------------------| 
E--------------------------| 
 
(1x) 
e--------------------| 
B-12-12-12-12-12-15--|  
G--------------------| 
D--------------------| 
A--------------------| 
E--------------------| 
 
 
Refrão 
e-------------------------------------------------------| 
B-------------------------------------------------------| 
G-5-----------------------------------------------------| 
D-5-1x--5-----2-----------------------------------------| 
A-3-----5-2x--2-8x--------------------------------------| 
E-------3-----0-----------------------------------------| 
It was the promise of summer 
 
e-------------------------------------------------------| 
B-------------------------------------------------------| 
G-5-----------------------------------------------------| 
D-5-1x--5-----2-----------------------------------------| 
A-3-----5-2x--2-8x--------------------------------------| 
E-------3-----0-----------------------------------------| 
We?ll seal it with a kiss 
 
e-------------------------------------------------------| 
B-------------------------------------------------------| 
G-5-----------------5-----------------------------------| 
D-5-1x--5-----2-----5?15x-------------------------------| 
A-3-----5-2x--2-8x--3-----------------------------------| 
E-------3-----0-----------------------------------------| 
This time I'll do things proper, 
How did it get to this? 
 
e-------------------------------------------------------| 
B-------------------------------------------------------| 
G-5-----------------------------------------------------| 
D-5-2x--5-----2-----------------------------------------| 
A-3-----5-2x--2-8x--------------------------------------| 
E-------3-----0-----------------------------------------| 
It was the promise of summer 
 
e-------------------------------------------------------| 
B-------------------------------------------------------| 
G-5-----------------------------------------------------| 
D-5-2x--5-----2-----------------------------------------| 
A-3-----5-2x--2-8x--------------------------------------| 
E-------3-----0-----------------------------------------| 
We?ll seal it with a kiss 
 
e-------------------------------------------------------| 
B-------------------------------------------------------| 
G-5-----------------5-----------------------------------| 
D-5-2x--5-----2-----5?9x--------------------------------| 
A-3-----5-2x--2-8x--3-----------------------------------| 
E-------3-----0-----------------------------------------| 
This time I'll do things proper, 
How did it get to this? 
 
 
 
 
 
 
 
Refrão Final 
(2x) 
e----------------------------------------------------------| 
B----------------------------------------------------------| 
G-----------------------5----------------------------------| 
D-5-------------2-------5----------------------------------| 
A-5-15x---------2-8x----3-8x-------------------------------| 
E-3-------------0------------------------------------------| 
 
 
Guitarra 2.(repete até acabar) 
 
(2x) 
e----------------------------------------------| 
B--10-10-10--12-12-12-12-12-12--7-7-7-8-8-8-8--|  
G----------------------------------------------| 
D----------------------------------------------| 
A----------------------------------------------| 
E----------------------------------------------| 
It was the promise of summer 
We?ll seal it with a kiss 
 
(2x) 
e--------------------------|   
B-10-----10------8-----8---|  
G---7-------7------7-----7-| 
D--------------------------| 
A--------------------------| 
E--------------------------| 

roll up this ad to continue

share this page

See Also: