E-Chords
Plus-44

Christmas Vacation(Tabs)

Plus-44

Key: D
Intro: 
D F# G e 
e|-----------------------------| 
b|-----------------------------| 
g|-----7--------9--7--------9~-| 
d|-----7--4--5--9--7--4--5--9~-| 
a|-----5--4--5--7--5--4--5--7~-| 
E|--------2--3--------2--3-----| 


Verse 1&2: 
Repeat x4 
F# G F# B 
e|-----------------------------| 
b|-----------------------------| 
g|--------------4--------------| 
d|-----4--5--4--4--------------| 
a|-----4--5--4--2--------------| 
E|-----2--3--2-----------------| 
pm- _______ 


Pre Chorus: 

D G B 
e|-----------------------------------| 
b|-----------------------------------| 
g|-----7-----7-----7-----7-----------| 
d|-----7--5--7--5--7--5--7--5--4--5--| 
a|-----5--5--5--5--5--5--5--5--4--5--| 
E|--------3-----3-----3-----3--2--3--| 
pm- ____ 


Chorus: 
D F# G e 
e|--------------------------------| 
b|--------------------------------| 
g|-----7--------9--7--------9~-9~-| 
d|-----7--4--5--9--7--4--5--9~-9~-| 
a|-----5--4--5--7--5--4--5--7~-7~-| 
E|--------2--3--------2--3--------| 


After 2nd Chorus: 
e 
e|-----------------------------| 
b|-----------------------------| 
g|-------9~----9~----9~----9~--| 
d|-------9~----9~----9~----9~--| 
a|-------7~----7~----7~----7~--| 
E|-----------------------------| 


3rd Verse: 
Repeat both x4 
F# G F# B 
e|-----------------|------------------| 
b|-----------------|------------------| 
g|-----------------|--------------4~--| 
d|-----------------|--4~--5~--4~--4~--| 
a|--------------2--|--4~--5~--4~--2~--| 
E|-----2--3--2-----|--2~--3~--2~------| 
pm- _______ 

| PM Palm mute 
| ~  vibrato 

[email protected]  

roll up this ad to continue

share this page

See Also: