E-Chords
Pinegrove

Old Friends(Tabs)

Pinegrove

roll up this ad to continue

Verse 
palm mute--------------- 
e|---------------------------------------------------------------------------| 
B|---------------------------------------------------------------------------| 
G|4----------6---------------------------------------------------------------| x3 
D|2-x14------x-x16-----------------------------------------------------------| 
A|2----------4---------------------------------------------------------------| 
E|0-----2-2--5---------------------------------------------------------------| 



Chorus 
e|0-----0--0--0----4---7---0---0------| 
B|0-----0--7--0----5---7---0---0------| 
G|4-----6--6--6----4---7---6---2------| 
D|2-----x--x--x----6---9---x---2------| x1 
A|2-----4--4--4----4---7---4---0------| 
E|0-----5--5--5----4---7---5---2------| 

Verse x3 

Chorus 2 
e|0-----0--0--0----4---7-----------------------------------------------------| 
B|5-----0--7--0----5---7-----------------------------------------------------| 
G|4-----6--6--6----4---7-----------------------------------------------------| 
D|2-----x--x--x----6---9-----------------------------------------------------| x1 
A|2-----4--4--4----4---7----4--2--0------------------------------------------| 
E|0-----5--5--5----4---7----5--4--2------------------------------------------|  


Bridge (not entirely positive about this part) 
'Walking out in the night time spring time....' 
                                          ~~~~~~ 
e|---------------------------------------------------------------------------| 
B|---------------------------------------------------------------------------| 
G|------------------------------------------------------2-2------------------| 
D|------------------------------------------------------2-2------------------| x1 
A|2------------7------9-9---11-------2-2--2-2----7---------------------------| 
E|0-x14--2-2---5-x14--7-7---9-x8\----0-0--0-0----5-x12--2-2------------------| 

Order: 

Verse x3 
Chorus x1 
Verse x3 
Chorus 2 x1 
Bridge x1 
Verse x1 
Chorus x1 


************************************ 

| /   Slide up 
| \   Slide down 
| ~   Vibrato 
| PM  Palm mute 

************************************ 
share this page

See Also: