E-Chords
Pillows

We Have a Theme Song(Tabs)

Pillows

Key: E
We Have a Theme Song 
 
by The Pillows 
 
this is a great song and it's fun to play 
 
IN STANDARD TUNING 
e 
b 
g 
d 
a 
E 
 
\ - slide 
~ - let ring 
 
Intro and Verse 
|-----------1-1-1-1---4-\-3--| 
|-5-5-5555--1-1-1-1---4-\-3--| 
|-5-5-5555--2-2-2-2---5-\-4--|this is played 
|-5-5-5555--3-3-3-3---6-\-5--|several times 
|-3-3-3553--3-3-3-3---6-\-5--| <-------- 
|-----------1-1-1-1---4-\-3--| 
 
This is a Fill used in the verses 
|-------------| 
|-------------| 
|-------------| 
|-------0-3~--| this is played fast 
|---2-4-------| 
|-3-----------| 
 
I haven't found out the Chorus yet (sry) 
 
End Note 
|----| 
|-5--| 
|-5--| don't let ring 
|-5--| 
|-3--| 
|----| 
 
That's all Folks 

roll up this ad to continue

share this page

See Also: