E-Chords
Pillows

High Risk(Tabs)

Pillows

high risk 
 
STANDARD TUNING 
 
intro 
 --------------------------------- 
 --------------------------------- 
 --------------------------------- 
 --8-----8-----8-----8-----10-10-- 
 --6-----6-----6-----6------8--8-- 
 ----8-8---8-8---8-8---8-8-------- 
 
 break - all palm muted 
 --------------------------------- 
 --------------------------------- 
 --------------------------------- 
 --------------------------10-10-- 
 --6-----6-----6-----6------8--8-- 
 ----8-8---8-8---8-8---8-8-------- 
 
             ~enjoy~ 
  

roll up this ad to continue

share this page

See Also: