E-Chords
Pillows

Come Down(Tabs)

Pillows

Come Down 
by the pillows 

STANDARD TUNING 

Riff 1 
|---------------------------------| 
|---------------------------------| 
|---------------------------------| 
|---------------------------------| 
|------9-------7-----6--------5---| 
|--7-7--7--5-5--5--4--4--3--3--3--| 

Riff 2 
|-----------------------| 
|-----------------------| 
|-----------------------| 
|--9-9--7-7--6-6-5-5-5--| 
|--9-9--7-7--6-6-5-5-5--| 
|--7-7--5-5--4-4-3-3-3--| 

Chorus 
|---------------------------------------| 
|---------------------------------------| 
|---------------------------------------| 
|--44444444-66666666-99999999-22222222--| 
|--44444444-66666666-99999999-22222222--| 
|--22222222-44444444-77777777-00000000--| 

|---------------------------------------| 
|---------------------------------------| 
|---------------------------------------| 
|--44444444-66666666-9999999999999999---| 
|--44444444-66666666-9999999999999999---| 
|--22222222-44444444-7777777777777777---| 

Ending 
|---------------------| 
|---------------------| 
|---------------------| 
|--9-9--7-7--6-6-5~---| 
|--9-9--7-7--6-6-5~---| 
|--7-7--5-5--4-4-3~---| 

roll up this ad to continue

share this page

See Also: