E-Chords
Pillows

Blues Drive Monster(Tabs)

Pillows

blues drive monster 
by the pillows      tabbed by: Weezer Pillows 
 
STANDARD TUNING 
 
intro                           Then... 
|--------------------------|    |-----| 
|--------------------------|    |-----| 
|--7--7--7--5-5-5-5-5-5-5--|    |--7--| 
|--7--7--7--5-5-5-5-5-5-5--|x4  |--7--| 
|--5--5--5--3-3-3-3-3-3-3--|    |--5--| 
|--------------------------|    |-----| 
 
verse riff 1 - let all powerchords ring 
|----------------------| 
|----------------------| 
|--7----7--------------| 
|--7----7----7----5----|x2 
|--5----5----7----5----| 
|------------5----3----| 
 
verse riff 2 
|------------------------------| 
|--------------------------9^--| 
|--6h7-7-7-6h7-7-7-6h7-7-7-----| 
|------------------------------| 
|------------------------------| 
|------------------------------| 
 
|-------------------------------| 
|-------------------------------| 
|--6h7-7-7-6h7-7-7-6h7-7-7------| 
|--------------------------9-7--| 
|-------------------------------| 
|-------------------------------| 
 
then there is this little bridge thing 
in the verse. 
|--------------------------------| 
|--------------------------------| 
|--------------------------------| 
|--5-5~--44444--5-5-5-5-7-7-7-7--| 
|--5-5~--44444--5-5-5-5-7-7-7-7--| 
|--3-3~--22222--3-3-3-3-5-5-5-5--| 
 
then it goes back to verse riff 2 (x4) 
 
I don't know the Chorus yet (sry) 
 
after Chorus go back to intro riff. 
 
Then play verse riff 2 (x4) 
 
Chorus 
 
Intro riff 
 
End On 
|------| 
|------| 
|--7~--| 
|--7~--| 
|--5~--| 
|------| 
 
That's all folks! 
 
have fun! 
 
 
 

roll up this ad to continue

share this page

See Also: