E-Chords
Pillows

Advice(Tabs)

Pillows

This is the rythym guitar 
for advice by the Pillows 
guitarist: Sawao 
 
Intro 
|-----------------| 
|-----------------| 
|-----------------| 
|-----------------|x7 
|-----------------| 
|--0-6-6---0-3-3--| 
 
Verse 
|-----------------| 
|-----------------| 
|-----------------|played 
|----8-8-----5-5--|MANY 
|----8-8-----5-5--|TIMES 
|--0-6-6---0-3-3--| 
 
Chorus 
|---------------------------------------------------| 
|---------------------------------------------------| 
|------------------2-2-2-2-2-2-2-2-3-3-3-3-3-3-3-3--| 
|--3-3-3-3-3-3-3-3-2-2-2-2-2-2-2-2-3-3-3-3-3-3-3-3--| 
|--3-3-3-3-3-3-3-3-0-0-0-0-0-0-0-0-1-1-1-1-1-1-1-1--| 
|--1-1-1-1-1-1-1-1----------------------------------| 
 
|-------------------| 
|-------------------|The first Chorus, this is played 
|--6-6-6-6-5-5-5-5--|twice. The second Chorus, it's  
|--6-6-6-6-5-5-5-5--|also played twice. And the third  
|--4-4-4-4-3-3-3-3--|Chorus, it's played 4 times. 
|-------------------| 
 
End on 
|-----| 
|-----| 
|-----| don't let ring 
|--3--| 
|--3--| 
|--1--| 
 
That's all Folks! 
 
Have Fun! 

roll up this ad to continue

share this page

See Also: