E-Chords
Picture This

One Drink(Tabs)

Picture This

roll up this ad to continue

Stave 1: 

e|--------------------------------| 
B|--------------------------------| 
G|-----------------6--8--6--4-----| 
D|--6--6--6--6--6--------------4--| 
A|--------------------------------| 
E|--------------------------------| 

e|--------------------------------| 
B|--------------------------------| 
G|-----------------6--8--6--4-----| 
D|--6--6--6--6--6--------------4--| 
A|--------------------------------| 
E|--------------------------------| 

e|--------------------------------| 
B|--------------------------------| 
G|-----------------6--8--6--4-----| 
D|--6--6--6--6--6--------------4--| 
A|--------------------------------| 
E|--------------------------------| 

Repeat 
share this page

See Also: