E-Chords
Phoebe Killdeer

The Fade Out Line(Tabs)

Phoebe Killdeer

roll up this ad to continue

Key: B
Riff / main riff: 
e|-------------------4---------| 
B|-------------------5---------| 
G|-------------------6---------| 
D|-----------1-------6---------| 
A|-------2-----------4---------| 
E|---4-------------------------| 

Verse Fills: 
e|-------------------------| 
B|--------2----------5-----| 
G|--------4----------6-----| 
D|-------------------------| 
A|-------------------------| 
E|-------------------------| 

e|-------------------------| 
B|--------7----------5-----| 
G|--------8----------6-----| 
D|-------------------------| 
A|-------------------------| 
E|-------------------------| 

e|-------------------------| 
B|--------2----------5-----| 
G|----4--------4-----------| 
D|-------------------------| 
A|-------------------------| 
E|-------------------------| 

e|--------------------------| 
B|---9-----7----------5-----| 
G|---9-----8----------6-----| 
D|--------------------------| 
A|--------------------------| 
E|--------------------------| 


Chorus: 
      B    F#       C#m      C#m 
e|----x--|--2---|----4----|---4----| 
B|----4--|--2---|----5----|---5----| 
G|----4--|--3---|----6----|---6----| 
D|----4--|--4---|----6----|---6----| 
A|----2--|--4---|----4----|---4----| 
E|-------|--2---|---------|--------| 

Watch for the strumming. B and F# and strummed once but sometimes they are  
strummed slowly to sound each string separately. 



Bridge: 
      B    C#m       E     C#m 
e|---------------|--------------| 
B|---------------|--------------| 
G|---4-4----6----|---9-9----6---| 
D|---4-4----6----|---9-9----6---| 
A|---2-2----4----|---7-7----4---| 
E|---------------|--------------| 
share this page

See Also: