E-Chords
Pewdiepie

Build That Motherfuckin Effigy(Tabs)

Pewdiepie

e|---------------------------------------------------------------------------| 
B|---------------------------------------------------------------------------| 
G|------6~-------------------------------------------------------------------| 
D|------6~-------------------------------------------------------------------| 
A|------4~-------------------------------------------------------------------| 
E|---------------------------------------------------------------------------| 

e|---------------------------------------------------------------------------| 
B|---------------------------------------------------------------------------| 
G|------6--6--6--6--6--6/------9--9\----4--4--4--4---------------------------|   Repeat 4 times. 
D|------6--6--6--6--6--6/------9--9\----4--4--4--4---------------------------| 
A|------4--4--4--4--4--4/------7--7\----2--2--2--2---------------------------| 
E|---------------------------------------------------------------------------| 

e|---------------------------------------------------------------------------| 
B|---------------------------------------------------------------------------| 
G|------9~-6--9~-6--9~-6--9/-11~--11^-9~--11^-9~-11^-9~-11-9-----------------| 
D|---------------------------------------------------------------------------| 
A|---------------------------------------------------------------------------| 
E|---------------------------------------------------------------------------| 

e|---------------------------------------------------------------------------| 
B|---------------------------------------------------------------------------| 
G|------6--9--------6--9--------6--9--------11--9----------------------------| 
D|------6--9--------6--9--------6--9--------11--9----------------------------| 
A|------4--7--------4--7--------4--7--------9---7----------------------------| 
E|---------------------------------------------------------------------------| 
************************************ 

| /   slide up 
| \   slide down 
| h   hammer-on 
| p   pull-off 
| ~   vibrato 
| +   harmonic 
| x   Mute note 
| ^   Bend 
| pb  Pre-bend 
| br  Bend release 
| pbr Pre-bend release 
| brb Bend release bend 

************************************ 

roll up this ad to continue

share this page

See Also: