E-Chords
Peter Alexander

Und Manchmal Weinst Du Sicher Ein Paar Tränen(Tabs)

Peter Alexander

Key: G
Intro 
e|---------------------------------------------------------------------------| 
B|--15-15-15---13---12\8-------------15-15-15---18--17\5---------------------| 
G|--16-16-16---14---12\7-------------16-16-16---17--17\5---------------------| 
D|---------------------------------------------------------------------------| 
A|---------------------------------------------------------------------------| 
E|---------------------------------------------------------------------------| 

e|---------------------------------------------------------------------------| 
B|--5/8--17--17-15-17--17-15-17--17-15-17--19-20\15--------------------------| 
G|--5/7--17--17-16-17--17-16-17--17-16-17--18-19\16--------------------------| 
D|---------------------------------------------------------------------------| 
A|---------------------------------------------------------------------------| 
E|---------------------------------------------------------------------------| 


verse 1 
e|---------------------------------------------------------------------------| 
B|---------------------------------------------------------------------------| 
G|---------14----------------------------------------------------------------| 
D|--14h16--------------------------------------------------------------------| 
A|---------------------------------------------------------------------------| 
E|---------------------------------------------------------------------------| 


Chorus 
e|---------------------------------------------------------------------------| 
B|--3/15----------5/17-------------------------------------------------------| 
G|--4/16----------5/17-------------------------------------------------------| x2 
D|---------------------------------------------------------------------------| 
A|---------------------------------------------------------------------------| 
E|---------------------------------------------------------------------------| 

e|---------------------------------------------------------------------------| 
B|-----------------------------------------12h13--12-------------------------| 
G|--12\7------------------------------------------------12h14--12------------| 
D|---------------------------------------------------------------------------| 
A|---------------------------------------------------------------------------| 
E|---------------------------------------------------------------------------| 


verse 2 
@ 1:44 
e|---------------------------------------------------------------------------| 
B|---------------------------------------------------------------------------| 
G|--15\----------------------------------------------------------------------| 
D|--16\----------------------------------------------------------------------| 
A|---------------------------------------------------------------------------| 
E|---------------------------------------------------------------------------| 


Chorus 
e|---------------------------------------------------------------------------| 
B|--3/15----------5/17-------------------------------------------------------| 
G|--4/16----------5/17------------------------------12\7---------------------| x2 
D|---------------------------------------------------------------------------| 
A|---------------------------------------------------------------------------| 
E|---------------------------------------------------------------------------| 


Key Change 
e|--10---11------------------------------------------------------------------| 
B|--12---11---11-------------------------------------------------------------| 
G|--------------8------------------------------------------------------------| 
D|---------------------------------------------------------------------------| 
A|---------------------------------------------------------------------------| 
E|---------------------------------------------------------------------------| 


verse 3 
@ 2:49 
e|--------------8------------------------------------------------16----------| 
B|------9--11---9-----------------------------------------13-----16----------| 
G|--/8----------8-----------------------------------13----13-----------------| 
D|---------------------------------------------------------------------------| 
A|---------------------------------------------------------------------------| 
E|---------------------------------------------------------------------------| 


Chorus 
e|---------------------------------------------------------------------------| 
B|--/8----8h9p8----------4/16----------6/18----------------------------------| 
G|-----8--8--------------5/17----------6/18----------------------------------| 
D|---------------------------------------------------------------------------| 
A|---------------------------------------------------------------------------| 
E|---------------------------------------------------------------------------| 

e|---------------------------------------------------------------------------| 
B|--16-----------------------------------------------------------------------| 
G|------15--12---------------------------------------------------------------| 
D|--------------13-----------------------------------------------------------| 
A|------------------13-------------------------------------------------------| 
E|----------------------15--11-----------------------------------------------| 


Outro 
e|---------------------------------------------------------------------------| 
B|--------------14---13-----13-14-13-----------------------------------------| 
G|--13-------------------------------15-13-----------------------------------| 
D|-------16-15---------------------------------------------------------------| 
A|---------------------------------------------------------------------------| 
E|---------------------------------------------------------------------------| 


************************************ 

| h   Hammer-on 
| p   Pull-off 
| /   Slide up 
| \   Slide down 

************************************ 

roll up this ad to continue

share this page

See Also: