E-Chords
Pete Murray

Please(Tabs)

Pete Murray

Key: Cadd9
tabbed by Brett Cook ([email protected]) 
 
 
organ plays intro chords 
 
 
Start picking the chords, then strumming. 
The song builds but still uses the same chords, by the end the variation with Cadd9 is played. 
 
 
     C     F 
 
 
e|---0-----0-----| 
b|---1-----1-----| 
g|---0-----2-----| 
d|---2-----3-----| 
a|---3-----3-----| 
e|---------------| 
 
 
 
     Cadd9     C    F 
 
 
e|---0---0---0-0----0-----| 
b|---3---3---3-1----1-----| 
g|---0---0---0-0----2-----| 
d|---2---2---2-2----3-----| 
a|---3---3---3-3----3-----| 
e|------------------------| 
 
 

roll up this ad to continue

share this page

See Also: