E-Chords
Pete Murray

My Time(Tabs)

Pete Murray

Key: D#m
tabbed by Brett Cook ([email protected]) 
 
 
Capo on the 1st fret (notes relative to capo) 
 
 
 
intro/verse - D#m, A#m, G#, A#m, F# 
mainly bass,Rhodes and piano but guitar joins at second verse with something like this  
 
 
 
     D#m A#m7 G#  A#m F# 
 
 
e1|--1---0----3---3---3---| 
b1|--3---1----0-h-1---1---| 
g1|--2---0----0---0---0---| 
d1|--0---2----0-h-2---3---| 
a1|------0----x---0-------| 
e1|-----------3-----------|    
 
 
 
or more simply, you can leave out the passing A#m, it's mainly the keyboard 
that plays it. 
 
 
 
     D#m A#m7 G#     F# 
 
 
e1|--1---0----3----------| 
b1|--3---1----0------1---| 
g1|--2---2----0------2---| 
d1|--0---2----0------3---| 
a1|------0----x------3---| 
e1|-----------3----------| 
 
 
 
 
Intro 
Verse 1 
verse 2 
 
 
chorus 1 
 
 
     C#        G#  A#m7   F#                      C#      G#  A#m7  F# 
 
 
e1|--0---------0----0---|--0---------------------|-0------0---0-----0------| 
b1|--1---------0--h-1---|--1---------------------|-1-p-0--0-h-1-----1------| 
g1|--0---------0----0---|--0---------------------|-0------0---0-----0------| 
d1|--2---------0--h-2---|--3---------------------|-2------0-h-2-----3------| 
a1|--3---------x----0---|------------------------|-3------x---0------------| 
e1|------------3--------|------------------------|--------3----------------|  x 2 
 
 
       wasting my time       watch my life slip away 
 
 
 
verse 3 
chorus 2 
 
 
 
bridge 
 
 
     G#           D#m         Fm F# Fm   D#m      
 
 
e1|--3-----------|-1----------0|-0--0-------------|-1---------------0| 
b1|--3-----------|-3----------0|-1--0-------------|-3---------------0| 
g1|--0-----------|-2----------0|-2--0-------------|-2---------------0| 
d1|--0-----------|-0----------2|-3--2-------------|-0---------------2| 
a1|--x-----------|-------------|------------------|------------------| 
e1|--3-----------|-------------|------------------|------------------| 
 
 
      I wish that you                were here to teach me               
 
 
 
e1|-0--0-----------|-1----------0-|-0--0---------------|-1-----------0-|-0----------| 
b1|-1--0-----------|-3----------0-|-1--0---------------|-3-----------0-|-1----------| 
g1|-2--0-----------|-2----------0-|-2--0---------------|-2-----------0-|-2--0-------| 
d1|-3--2-----------|-0----------2-|-3--2---------------|-0-----------2-|-3--2--0----| 
a1|----------------|--------------|--------------------|---------------|------------| 
e1|----------------|--------------|--------------------|---------------|------------| 
 
 
        I wish that you                  were here to speak to me 
 
 
 
intrumental chorus, through once only not twice 
 
 
verse 4 
 
 
repeat chorus to end 
 

roll up this ad to continue

share this page

See Also: