E-Chords
Pete Murray

Lines(Tabs)

Pete Murray

Key: G
tabbed by Brett Cook ([email protected]) 
 
 
Capo on the 2nd fret (notes relative to capo) 
 
 
 
intro/verse (you just need your index (i) and middle (m) finger for this riff,  
sliding the G shape from the 3rd to the 5th fret. the D string is always open) 
 
 
 
 
     F#m          A      Badd4 
 
 
        i  m i    i      /i 
                  m      /m 
e2|--------------------------------| 
b2|--------------------------------| 
g2|--------------------------------| 
d2|------------------0---------0---| 
a2|-----2--3-2----2--2---/4----44--| 
e2|--0------------3------/5--5--5--| 
 
 
 
chorus 
 
 
     D     E     F#m   A  D/A 
 
 
e2|--0-----2------------------| 
b2|--1-----3-----------3--3---| 
g2|--0-----2-----0-----0--2---| 
d2|--2-----0-----2-----0--0---| 
a2|--3-----0-----2-----x--0---| 
e2|--------------0-----3------| 
 
 
 
 
middle 8 (i'll be there for you....) 
 
 
     E                D 
 
 
e2|-----------------------------------| 
b2|--3-3-3-3-3-3-3----3-3-3-3-3-3-3---| 
g2|--2-2-2-2-2-2-2----0-0-0-0-0-0-0---| 
d2|--0-0-0-0-0-0-0----2-2-2-2-2-2-2---| 
a2|--0-0-0-0-0-0-0----3-3-3-3-3-3-3---| 
e2|-----------------------------------| 
 
 
 
 

roll up this ad to continue

share this page

See Also: