E-Chords
Pete Murray

Freedom(Tabs)

Pete Murray

Key: Em
tabbed by Brett Cook ([email protected]) 
 
 
 - notes and chords relative to capo  
 
 
           
verse riff 
 
 
     Em                      Cmaj7       Asus2    
 
 
e1|-----------------------------------------------------| 
b1|-----------------------------------------------------| 
g1|--------4--------4-----4--------4-----------4--------| 
d1|--------2--------2-----2--------2-----------2--------| 
a1|--x--x-----x--x-----x-----3--3-----3--0--0--0--0-----| 
e1|--0--0-----0--0-----0--------------------------------| 
 
 
 
 
chorus 
 
 
     Am                   Cmaj7       G/B  
 
 
e1|-----------------------------------------------------| 
b1|--------1~-------1~-------------0--------0-----------| 
g1|--2--2--2~-2--2--2~-2--2--0--0--0--0--0--0--0--0-----| 
d1|--2--2--2~-2--2--2~-2--2--2--2--2--2--0--0--0--0-----| 
a1|--0--0--0--0--0--0--0--0--3--3--3--3--2--2--2--2-----| 
e1|-----------------------------------------------------| 
 
 

roll up this ad to continue

share this page

See Also: