E-Chords
Pete Murray

Class A(Tabs)

Pete Murray

Submitted by Matty1892 
{[email protected]} 
 
Intro: 
E----------------------------------------- 
B----------------------------------------- 
G----------------------------------------- 
D---------------5-5----------------------- 
A---5-5---------------5/7----0------------ 
E--------5/7------------------------------ Repeat 
 
 
Body: 
E----------------------------------------- 
B----------------------------------------- 
G----------------------------------------- 
D----------------------------------------- 
A---5-5------------------5/3----0--------- 
E--------5/7-------3-3-------------------- Repeat 
 

roll up this ad to continue

share this page

See Also: