E-Chords
Pete Murray

beautiful(Tabs)

Pete Murray

Key: F
Better Days ? Pete Murray 
 
EADGBe 
 
 
     F   C  Em  Am   G   C    
E|---0---0---0---0---3---3--- 
B|---1---1---0---1---0---3--- 
G|---2---0---0---2---0---0--- 
D|---3---2---2---2---0---2--- 
A|---3---3---2---0---x---3--- 
E|---x---3---0---x---3---x--- 
 
Verses				Chorus 
| F | C | Em | Am |	| C/Em | Am/F |(6x)	| F |(after 6th time)	 
| F | C | Em | Em |		 
| F | C | Em | Am |	 
| F | C | Em | Em | 
 
Verse 
    F                       C        Em         Am                
e---x--x---x---x-x--x--|----0----|----0----|----x----x---x-x-x---| 
B---1--1---1---1-1--1--|----1----|----0----|----1----1---1-1-1---| 
G---2--0---0-?-0h2--0--|----0----|----0----|----2----0---2-2-0---| 
D---3--3---3---3-3--3--|----2----|----2----|----2----0---2-2-0---| 
A---3--3---3---3-3--3--|----3----|----2----|----0----0---0-0-0---| 
E---x--x---x---x-x--x--|----3----|----0----|----x----x---x-x-----| 
 
     F                       C        Em         Em 
e----x--x---x---x-x--x--|----0----|----0----|----x----| 
B----1--1---1---1-1--1--|----1----|----0----|----1----| 
G----2--0---0-?-0h2--0--|----0----|----0----|----2----|	2x 
D----3--3---3---3-3--3--|----2----|----2----|----2----| 
A----3--3---3---3-3--3--|----3----|----2----|----0----| 
E----x--x---x---x-x--x--|----3----|----0----|----x----| 
 
Chorus 
     C   Em       Am       F 
e----0---0----|----0---0---x----| 
B----1---0----|----1---1---1----| 
G----0---0----|----2-?-0---2----|	6x 
D----2---2----|----2---0---3----| 
A----3---2----|----0---0---3----| 
E----3---0----|----x---x---x----| 
 
F                    
e---x--x---x---x-x--x--| 
B---1--1---1---1-1--1--| 
G---2--0---0-?-0h2--0--|	Alter 6th bar 
D---3--3---3---3-3--3--| 
A---3--3---3---3-3--3--| 
E---x--x---x---x-x--x--| 
 
 
Verse One 
And I saw it coming; 
I saw emptineeeess and tragedy. 
And I felt like running, so far away; 
But knew I had to stay. 
And I know when I?m older I look back and I still feel the pain. 
I know I?ll be stronger, And I know I?ll be fine for the rest of my days. 
 
 Chorus 
I seen better days 
Put my face in my hands 
Get-down on my knees and I pray to God 
Hope he sees me through till the e-eeend. 
 
Verse Two 
I notice most things; 
But I didn?t no-tice the change. 
It was hot in the morning 
Then it turned so cold ?twas the end of the day. 
There was no conversation; 
It just felt like I was in space. 
I needed my friends there; I just turned around 
They were gone without a trace. 
 
Chorus 
 
Cello solo 
(verse chords) 
 
Verse Three 
Now I have just started; 
And I want it done till the end. 
There?s nothing I have lost; 
There was ones placed upon my hands. 
And all of these hard times; 
Have faded around the bend. 
Now that I?m wiser;  
I cannot wait - till I can help my friends. 
 
Chorus 
I seen better days 
Put my face in my hands 
Get-down on my knees and I pray to God 
Hope he sees me through till the e-eeend 
 
Seen better days 
Put my face in my hands 
Get-down on my knees and I pray to God 
Hope he sees me through till the e-eeend 
 
I seen better; 
Naah-naah, nah-nah-nah-nah-nah; 
Naah-naah, nah-nah-nah-nah-nah; 
Naah-naah, nah-nah-nah-nah-nah; 
Naah-naah, nah-nah-nah-nah-nah. 
 
 

roll up this ad to continue

share this page

See Also: