E-Chords
Pete Murray

Bail Me Out(Tabs)

Pete Murray

Key: Bm
tabbed by Brett Cook ([email protected]) 
 
Capo on the 2st fret (notes relative to capo)
 
 
 
intro   
 
       Bm7                            D              E 
e2|--0-0-0-0-0-0-0-0--0-0-0-0-0-0-0-|-0-0-0-0-0-0-0-0--0-0-0-0-0-0-0-| 
b2|--0h1-1-1-1p0-0-0-h1-1-1-1-1p0-0-|-1-1-1-1-1-1-1/3--3-3-3-3-3-3-3-| 
g2|--0-0-0-0-0-0-0-0--0-0-0-0-0-0-0-|-0-0-0-0-0-0-0-0--0-0-0-0-0-0-0-| 
d2|--0h2-2-2-2p0-0-0-h2-2-2-2-200-0-|-2-2-2-2-2-2-2/4--4-4-4-4-4-4-4-| 
a2|--0-0-0-0-0-0-0-0--0-0-0-0-0-0-0-|-3-3-3-3-3-3-3/5--5-5-5-5-5-5-5-| 
e2|---------------------------------|--------------------------------| x4 
 
verse 1 
 
       Bm7                            D              E 
e2|--0-0-0-0-0-0-0-0--0-0-0-0-0-0-0-|-0-0-0-0-0-0-0-0--0-0-0-0-0-0-0-| 
b2|--0h1-1-1-1p0-0-0-h1-1-1-1-1p0-0-|-1-1-1-1-1-1-1/3--3-3-3-3-3-3-3-| 
g2|--0-0-0-0-0-0-0-0--0-0-0-0-0-0-0-|-0-0-0-0-0-0-0-0--0-0-0-0-0-0-0-| 
d2|--0h2-2-2-2p0-0-0-h2-2-2-2-200-0-|-2-2-2-2-2-2-2/4--4-4-4-4-4-4-4-| 
a2|--0-0-0-0-0-0-0-0--0-0-0-0-0-0-0-|-3-3-3-3-3-3-3/5--5-5-5-5-5-5-5-| 
e2|---------------------------------|--------------------------------|  x3 
 
       Bm7                            D              E 
e2|--0-0-0-0-0-0-0-0--0-0-0-0-0-0-0-|-0-0-0-0-0-0-0-0--0-------------| 
b2|--0h1-1-1-1p0-0-0-h1-1-1-1-1p0-0-|-1-1-1-1-1-1-1/3--3-------------| 
g2|--0-0-0-0-0-0-0-0--0-0-0-0-0-0-0-|-0-0-0-0-0-0-0-0--0-------------| 
d2|--0h2-2-2-2p0-0-0-h2-2-2-2-200-0-|-2-2-2-2-2-2-2/4--4-------------| 
a2|--0-0-0-0-0-0-0-0--0-0-0-0-0-0-0-|-3-3-3-3-3-3-3/5--5-------------| 
e2|---------------------------------|--------------------------------|  x1 
 
       Bm7                            D              E 
e2|--0-0-0-0-0-0-0-0--0-0-0-0-0-0-0-|-0-0-0-0-0-0-0-0--0-0-0-0-0-0-0-| 
b2|--0h1-1-1-1p0-0-0-h1-1-1-1-1p0-0-|-1-1-1-1-1-1-1/3--3-3-3-3-3-3-3-| 
g2|--0-0-0-0-0-0-0-0--0-0-0-0-0-0-0-|-0-0-0-0-0-0-0-0--0-0-0-0-0-0-0-| 
d2|--0h2-2-2-2p0-0-0-h2-2-2-2-200-0-|-2-2-2-2-2-2-2/4--4-4-4-4-4-4-4-| 
a2|--0-0-0-0-0-0-0-0--0-0-0-0-0-0-0-|-3-3-3-3-3-3-3/5--5-5-5-5-5-5-5-| 
e2|---------------------------------|--------------------------------| x4 
   
     D           E 
e2|--0-0-0-0-0-0-0-0-0-0-0-0-0-| 
b2|--1-1-1-1-1-1-3-3-3-3-3-3-3-| 
g2|--0-0-0-0-0-0-0-0-0-0-0-0-0-| 
d2|--2-2-2-2-2-2-4-4-4-4-4-4-4-| 
a2|--3-3-3-3-3-3-5-5-5-5-5-5-5-| 
e2|----------------------------|   x2 
 
 
     D            E 
e2|--0-0-0-0-0-0--0------------| 
b2|--1-1-1-1-1-1--3------------| 
g2|--0-0-0-0-0-0--0------------| 
d2|--2-2-2-2-2-2--4------------| 
a2|--3-3-3-3-3-3--5------------| 
e2|----------------------------|   x1 
 
chorus 
 
     Bm7               D             E                 D       
e2|--0-0-0-0-0-0-0-0-0-0-0-0-0-0-0-|-0-0-0-0-0-0-0-0-0-0-0-0-0-0-0-0-| 
b2|--1-1-1-1-1-1-1-1-1-1-1-1-1-1-1-|-3-3-3-3-3-3-3-3-1-1-1-1-1-1-1-1-| 
g2|--0-0-0-0-0-0-0-0-0-0-0-0-0-0-0-|-0-0-0-0-0-0-0-0-0-0-0-0-0-0-0-0-| 
d2|--2-2-2-2-2-2-2-2-2-2-2-2-2-2-2-|-4-4-4-4-4-4-4-4-4-2-2-2-2-2-2-2-| 
a2|--0-0-0-0-0-0-0-0-0-3-3-3-3-3-3-|-5-5-5-5-5-5-5-5-5-3-3-3-3-3-3-3-| 
e2|--------------------------------|---------------------------------| x4 
 
verse 2 
interlude (verse progression) 
repeat chorus to end

roll up this ad to continue

share this page

See Also: