E-Chords
Pete Doherty

Sheepskin Tearaway(Tabs)

Pete Doherty

roll up this ad to continue

Key: A
    A        A7   C#7      Dm7 
e | --5--7--5-----4-4-4---5-----5- |  
b | --5--5--5-----6-7-6---7--7--7- |  
G | --6--6--6-----4-4-4---6--6--6- |  
D | --7--5--5-----6-6-6---7--7--7- |  
A | --7--7--7-----4-4-4---5--6--5- |  
E | --5--5--5--------------------- |  

Riff2: 
    A     A7   C#7    Dm7 
e | --0--0--0-----------2--2--2- |  
b | --2--2--2-----2-----2--2--2- |  
G | --2--4--0-----4-----2--2--2- |  
D | --2--2--2-----3-----0--1--0- |  
A | --0--0--0-----4------------- |  
E | ---------------------------- |  

Pete alternate the two Riffs over the song (the riffs are the same). 


the interlude between the verses is: 

Bm C#m D E 
share this page

See Also: