E-Chords
Passafire

Lorelei(Tabs)

Passafire

roll up this ad to continue

Key: D
'Lorelei' by Passafire 
From the album 'Start From Scratch' 
2011  

Please Note: In the intro, the '/' are not slides. I just used it to show it's  
important to pick the next note fast, almost like a hammer on, but it's not.  

For the Intro, a Wah Pedal with Distortion makes it fit in with the sound well, just saying. 

Intro 
Part 1 
E|----------------------------------------------------------| 
A|----------------------------------------------------------|  
D|---12-10/12-10/12-10/12/13/12/10--8-7/8-7/8-1/8/10/8/7----|   x2  
G|----------------------------------------------------------| 
B|----------------------------------------------------------| 
e|----------------------------------------------------------| 

Part 2 
E|---------------------------------------------------------------| 
A|---------------------------------------------------------------| 
D|---------------------------------------------------------------|   x2 
G|---14-12/14-12/14-12/14/15/14/12--10-9/10-9/10-9/10/9/10/12----| 
B|---------------------------------------------------------------| 
e|---------------------------------------------------------------| 

On the verse, use distortion without Wah, and listen for the rhythm. 

Verse  
  D         C/Bb F  Bb      C D 
|----------------1---------------| 
|-5--5--5--5/3/1-3--1--1--1/3/5--| 
|-7--7--7--7/5/3-3--3--3--3/5/7--|  x2 
|-7--7--7--7/5/3----3--3--3/5/7--| 
|--------------------------------| 
|--------------------------------| 

Use a clean ska sound for this. 

Chorus 
   G  Bb A  G 
|--3--6--5--3--| 
|--5--8--7--5--| 
|--5--8--7--5--|  x8 
|--4--7--6--4--| 
|--3--6--5--3--| 
|--3--6--5--3--| 

Intro Part 1 
E|----------------------------------------------------------| 
A|----------------------------------------------------------|  
D|---12-10/12-10/12-10/12/13/12/10--8-7/8-7/8-1/8/10/8/7----|   x2  
G|----------------------------------------------------------| 
B|----------------------------------------------------------| 
e|----------------------------------------------------------| 

verse 2 
  D         C/Bb F  Bb      C D 
|----------------1---------------| 
|-5--5--5--5/3/1-3--1--1--1/3/5--| 
|-7--7--7--7/5/3-3--3--3--3/5/7--|  x2 
|-7--7--7--7/5/3----3--3--3/5/7--| 
|--------------------------------| 
|--------------------------------| 

Chorus 
   G  Bb A  G 
|--3--6--5--3--| 
|--5--8--7--5--| 
|--5--8--7--5--|  x8 
|--4--7--6--4--| 
|--3--6--5--3--| 
|--3--6--5--3--| 

Distortion with Wha is highly recommended for the Bridge. Especially if you decided to Solo. 

Bridge 
   D      A      F      G      E 
|------------------------------------| 
|--5------121212-8-8-8--101010-777---| 
|--7------141414-101010-121212-999---|  x2 
|--7------141414-101010-121212-999---| 
|------------------------------------| 
|------------------------------------| 

There's sort of a Solo on the rest of the Bridge, but the Rhythm parts are just   
the verse and Chorus. 

  D         C/Bb F  Bb      C D 
|----------------1---------------| 
|-5--5--5--5/3/1-3--1--1--1/3/5--| 
|-7--7--7--7/5/3-3--3--3--3/5/7--|  x2 
|-7--7--7--7/5/3----3--3--3/5/7--| 
|--------------------------------| 
|--------------------------------| 

   G  Bb A  G 
|--3--6--5--3--| 
|--5--8--7--5--| 
|--5--8--7--5--|  x8 
|--4--7--6--4--| 
|--3--6--5--3--| 
|--3--6--5--3--| 

Play 'Intro' as the Outro 
Part 1 
E|----------------------------------------------------------| 
A|----------------------------------------------------------|  
D|---12-10/12-10/12-10/12/13/12/10--8-7/8-7/8-1/8/10/8/7----|   x2  
G|----------------------------------------------------------| 
B|----------------------------------------------------------| 
e|----------------------------------------------------------| 

Part 2 
E|---------------------------------------------------------------| 
A|---------------------------------------------------------------| 
D|---------------------------------------------------------------|   x2 
G|---14-12/14-12/14-12/14/15/14/12--10-9/10-9/10-9/10/9/10/12----| 
B|---------------------------------------------------------------| 
e|---------------------------------------------------------------| 

End. 
share this page

See Also: