E-Chords
Passafire

Carouser(Tabs)

Passafire

roll up this ad to continue

Key: D
Tab : Joey 
My first tab, let me know what I did wrong. Passafire rules. 
Intro 
e|----------------------------------------| 
b|----------------------------------------| 
G|-9v/7v/12vvvvvvvvv---9vvvvvv/12vv/9vvv--| 
D|-9v/7v/12vvvvvvvvv---9vvvvvv/12vv/9vvv--| 
A|-7v/5v/10vvvvvvvvv---7vvvvvv/10vv/7vvv--| 
E|----------------------------------------| 
Main Riff/Chorus 
e|-------------------------------------------------| 
b|-------------------------------------------------| 
G|--1212-xxx11-11-x9-9xxx7-7x9-9xxx9-9-7/9-9xxx9-9-| 
D|--1212-xxx11-11-x9-9xxx7-7x9-9xxx9-9-7/9-9xxx9-9-| 
A|--1010-xxx-9--9-x7-7xxx5-5x7-7xxx7-7-5/7-7xxx7-7-| 
E|-------------------------------------------------| 
And then 
e|---------------------------------------------------------------| 
b|---------------------------------------------------------------| 
G|-121212121212111111111111-999999-777777-9-9xxx9-9-7/9-9xxx9-9--| 
D|-121212121212111111111111-999999-777777-9-9xxx9-9-7/9-9xxx9-9--| 
A|-101010101010-9-9-9-9-9-9-777777-555555-7-7xxx7-7-5/7-7xxx7-7--| 
E|---------------------------------------------------------------| 

e|-------------------------------------------------------| 
b|-------------------------------------------------------| 
G|-121212121212111111111111-999999-777777-9-9xxx9-9-7/9--| 
D|-121212121212111111111111-999999-777777-9-9xxx9-9-7/9--| 
A|-101010101010-9-9-9-9-9-9-777777-555555-7-7xxx7-7-5/7--| 
E|-------------------------------------------------------| 
Then this cool lick 
e|-------------------------------------------------| 
b|-------10h12-----10h12-----10h12-12-12b13r12p10--| 
G|--11h12-----11h12-----11h12----------------------| 
D|-------------------------------------------------| 
A|-------------------------------------------------| 
E|-------------------------------------------------| 

e|-----------------------------------------------| 
b|------10h12-----10h12-----10h12-12-12b13r12/8--| 
G|-11h12-----11h12-----11h12---------------------| 
D|-----------------------------------------------| 
A|-----------------------------------------------| 
E|-----------------------------------------------| 




Verse Riff 
e|---------10-10---9--9---------5v-7-7-7-7-7-7-7-7--| 
b|---------12-12--10-10---7v8v7v7v-8-8-8-8-8-8-8-8--| 
G|--11/12--12-12--11-11---7v9v7v7v-9-9-9-9-9-9-9-9--| 
D|---------12-12--11-11---7v7v7v7v-9-9-9-9-9-9-9-9--| 
A|---9/10--10-10---9--9---------5v-7-7-7-7-7-7-7-7--| 
E|--------------------------------------------------| 
He plays the lick below after the D chord instead of the Em chord above, you can play either 
e|---------------------------------| 
b|---------------------------------| 
G|----9v--------9v--------9v-------| 
D|---------9v--------9v--------9v--| 
A|-12v--12v--12v--12v--12v--12v----| 
E|---------------------------------| 

Pre Chorus 1 (only played before first Chorus) 
e|----------------------------------| 
b|----------------------------------| 
G|-----9vvv-------------------------| 
D|-----9vvv-------------------------| 
A|-----7vvv-------------------------| 
E|----------------------------------| 

Outro 
e|---------------------------------------------| 
b|---------------------------------------------| 
G|--12vvv-11-11-11-9vvv-7-7-7------------------| 
D|--12vvv--9--9--9-9vvv-7-7-7------------------| 
A|--10vvv--9--9--9-7vvv-5-5-5------------------| 
E|---------------------------------------------| 

e|-------------------------------------------------| 
b|-------------------------------------------------| 
G|--12vvv-11-11-11-9vvv-7-7-7-9--------------------| 
D|--12vvv--9--9--9-9vvv-7-7-7-9--------------------| 
A|--10vvv--9--9--9-7vvv-5-5-5-7--------------------| 
E|-------------------------------------------------| 
*************** 
 Tab Key 
h=hammer on 
p=pull off 
b=bend up 
r=release bend 
v=whammy 
*************** 
share this page

See Also: