Paradise Lost

Victim Of The Past(Tabs)

Paradise Lost

Key: G

roll up this ad to continue

	        

Intro 
Lead 
D |---------------------------------------| 
A |---------------------------------------| 
F |--------------------9~--8~-------------| 
C |-11~--9~--8~(8)/6~----------6~----6----| 
G |---------------------------------------| 
D |---------------------------------------| 
A |---------------------------------------| 
Rhythm 
D |---------------------------------------| 
A |---------------------------------------| 
F |---------------------------------------| 
C |----------8~---------------------------| 
G |--7~--8~-------------------------------| 
D |----------------7~---(7)~---9~----9----| 
A |---------------------------------------| 

verse 1 part 1 
    ‚??Lost faith in others Lost faith in all‚?Ě 
Lead 
D |---------------------------------------| 
A |---------------------------------------| 
F |--------------------9~--8~-------------| 
C |-11~--9~--8~(8)/6~----------6~----6----| 
G |---------------------------------------| 
D |---------------------------------------| 
A |---------------------------------------| 
Rhythm 
D |---------------------------------------| 
A |---------------------------------------| 
F |---------------------------------------| 
C |----------8~---------------------------| 
G |--7~--8~-------------------------------| 
D |----------------7~---(7)~---9~----9----| 
A |---------------------------------------| 

verse 1 part 2 
   ‚??Fading trust evermore Ashamed of what we endure‚?Ě 
   ‚??Into the grave...consoled in darkness A lack of faith‚?Ě 
Lead 
D |----------------------------------7--------------| 
A |-9~---(9)/12‚??(12)/------/11---------8~-----------| 
F |-------------------7~-------8~---------------8~--| 
C |-------------------------------------------------| 
G |-------------------------------------------------| 
D |-------------------------------------------------| 
A |-------------------------------------------------| 
Rhythm 
D |-------------------------------------------------| 
A |-------------------------------------------------| 
F |-------------------------------------------------| 
C |-----------R-E-S-T----------R-E-S-T--------------| 
G |-------------------------------------------------| 
D |-------------------------------------------------| 
A |-------------------------------------------------| 

Pre Chorus 
    ‚??No one can save you now...‚?Ě 
    ‚??Thorns you wear as a shroud...‚?Ě 
Lead and Rhythm x2 
D |-------------------------------------------------------------------| 
A |-------------------------------------------------------------------| 
F |-------------------------------------------------------------------| 
C |-----------------/10-10-10-10-9-9-9-9----------------8-8-8-8-------| 
G |-6-6-6-6-6-6-6-6-/ 8--8--8--8-7-7-7-7-9-9-9-9-9-9/10-6-6-6-6-8/9/4-| 
D |-4-4-4-4-4-4-4-4----------------------7-7-7-7-7-7/ 8---------6/7/2-| 
A |-------------------------------------------------------------------| 

Chorus 
    ‚??Born to save, the night has fallen‚?Ě 
    ‚??Born to save, just save us from the past‚?Ě 

Lead+ 
     T*          T*             T*             T*             T* 
D |-----------------|--------------|--------------|--------------| 
A |-----------------|--------------|--------------|--------------| 
F |-13-6^8^6^8^8-13-|-4^6^4^6^4-13-|-3^4^3^4^3-13-|-1^3^1^3^1-13-| 
C |-----------------|--------------|--------------|--------------| 
G |-----------------|--------------|--------------|--------------| 
D |-----------------|--------------|--------------|--------------| 
A |-----------------|--------------|--------------|--------------| 
Rhythm 
D |-----------------------------------------------------------------| 
A |-----------------------------------------------------------------| 
F |-----------------------------------------------------------------| 
C |-----------------------------------------------------------------| 
G |-----------------------------------------------------------------| 
D |---------------------------------4-4-4-4-4-4-4-4-7-7-------------| 
A |-5-5-5-5-5-5-5-5-4-4-4-4-4-4-4-4---------------------5-5-4-4-0-0-| 

Break 

Rhythm x2 
D |-------------------------------------------------------------------| 
A |-------------------------------------------------------------------| 
F |-------------------------------------------------------------------| 
C |-----------------/10-10-10-10-9-9-9-9----------------8-8-8-8-------| 
G |-6-6-6-6-6-6-6-6-/ 8--8--8--8-7-7-7-7-9-9-9-9-9-9/10-6-6-6-6-8/9/4-| 
D |-4-4-4-4-4-4-4-4----------------------7-7-7-7-7-7/ 8---------6/7/2-| 
A |-------------------------------------------------------------------| 
Pre Chorus 
    ‚??No one can save you now...‚?Ě 
    ‚??Fortune tears as you drown...‚?Ě 
Lead and Rhythm x2 
D |-------------------------------------------------------------------| 
A |-------------------------------------------------------------------| 
F |-------------------------------------------------------------------| 
C |-----------------/10-10-10-10-9-9-9-9----------------8-8-8-8-------| 
G |-6-6-6-6-6-6-6-6-/ 8--8--8--8-7-7-7-7-9-9-9-9-9-9/10-6-6-6-6-8/9/4-| 
D |-4-4-4-4-4-4-4-4----------------------7-7-7-7-7-7/ 8---------6/7/2-| 
A |-------------------------------------------------------------------| 

Chorus 
    ‚??Sworn disdain, the knife has fallen‚?Ě 
    ‚??Sworn to save, the victims of the past‚?Ě 

Lead+ 
     T*          T*             T*             T*             T* 
D |-----------------|--------------|--------------|--------------| 
A |-----------------|--------------|--------------|--------------| 
F |-13-6^8^6^8^8-13-|-4^6^4^6^4-13-|-3^4^3^4^3-13-|-1^3^1^3^1-13-| 
C |-----------------|--------------|--------------|--------------| 
G |-----------------|--------------|--------------|--------------| 
D |-----------------|--------------|--------------|--------------| 
A |-----------------|--------------|--------------|--------------| 
Rhythm 
D |-----------------------------------------------------------------| 
A |-----------------------------------------------------------------| 
F |-----------------------------------------------------------------| 
C |-----------------------------------------------------------------| 
G |-----------------------------------------------------------------| 
D |---------------------------------4-4-4-4-4-4-4-4-7-7-------------| 
A |-5-5-5-5-5-5-5-5-4-4-4-4-4-4-4-4---------------------5-5-4-4-0-0-| 


Intro Revisited 
    ‚??The others...the guiding flame‚?Ě 
    ‚??Lost faith in others...lost faith in all‚?Ě 

Lead x4 
D |---------------------------------------| 
A |---------------------------------------| 
F |--------------------9~--8~-------------| 
C |-11~--9~--8~(8)/6~----------6~----6----| 
G |---------------------------------------| 
D |---------------------------------------| 
A |---------------------------------------| 
Rhythm x4 
D |---------------------------------------| 
A |---------------------------------------| 
F |---------------------------------------| 
C |----------8~---------------------------| 
G |--7~--8~-------------------------------| 
D |----------------7~---(7)~---9~----9----| 
A |---------------------------------------| 

Verse 
   ‚??Fading trust evermore Ashamed of what we endure‚?Ě 
   ‚??Into a veil of darkness...consoled in darkness A lack of faith‚?Ě 
Lead 
D |----------------------------------7--------------| 
A |-9~---(9)/12‚??(12)/------/11---------8~-----------| 
F |-------------------7~-------8~---------------8~--| 
C |-------------------------------------------------| 
G |-------------------------------------------------| 
D |-------------------------------------------------| 
A |-------------------------------------------------| 
Rhythm 
D |-------------------------------------------------| 
A |-------------------------------------------------| 
F |-------------------------------------------------| 
C |-----------R-E-S-T----------R-E-S-T--------------| 
G |-------------------------------------------------| 
D |-------------------------------------------------| 
A |-------------------------------------------------| 

Pre Chorus 
Lead and Rhythm x2 
D |-------------------------------------------------------------------| 
A |-------------------------------------------------------------------| 
F |-------------------------------------------------------------------| 
C |-----------------/10-10-10-10-9-9-9-9----------------8-8-8-8-------| 
G |-6-6-6-6-6-6-6-6-/ 8--8--8--8-7-7-7-7-9-9-9-9-9-9/10-6-6-6-6-8/9/4-| 
D |-4-4-4-4-4-4-4-4----------------------7-7-7-7-7-7/ 8---------6/7/2-| 
A |-------------------------------------------------------------------| 

Chorus 
    ‚??Born to save, the night has fallen‚?Ě 
    ‚??Born to save, just save us from the past‚?Ě 

Lead+ 
     T*          T*             T*             T*             T* 
D |-----------------|--------------|--------------|--------------| 
A |-----------------|--------------|--------------|--------------| 
F |-13-6^8^6^8^8-13-|-4^6^4^6^4-13-|-3^4^3^4^3-13-|-1^3^1^3^1-13-| 
C |-----------------|--------------|--------------|--------------| 
G |-----------------|--------------|--------------|--------------| 
D |-----------------|--------------|--------------|--------------| 
A |-----------------|--------------|--------------|--------------| 
Rhythm 
D |-----------------------------------------------------------------| 
A |-----------------------------------------------------------------| 
F |-----------------------------------------------------------------| 
C |-----------------------------------------------------------------| 
G |-----------------------------------------------------------------| 
D |---------------------------------4-4-4-4-4-4-4-4-7-7-------------| 
A |-5-5-5-5-5-5-5-5-4-4-4-4-4-4-4-4---------------------5-5-4-4-0-0-| 

Outro 
    ‚??No one can save you now‚?Ě 
    ‚??Thorns you wear as a shroud all victims of the past‚?Ě 

Lead and Rhythm x4 
D |-------------------------------------------------------------------| 
A |-------------------------------------------------------------------| 
F |-------------------------------------------------------------------| 
C |-----------------/10-10-10-10-9-9-9-9----------------8-8-8-8-------| 
G |-6-6-6-6-6-6-6-6-/ 8--8--8--8-7-7-7-7-9-9-9-9-9-9/10-6-6-6-6-8/9/4-| 
D |-4-4-4-4-4-4-4-4----------------------7-7-7-7-7-7/ 8---------6/7/2-| 
A |-------------------------------------------------------------------|
	        

See Also: