E-Chords
Papa Roach

Black Clouds(Tabs)

Papa Roach

roll up this ad to continue

Key: D
 
Afinação(D A D G B E) 
 
E|----------------------------------|--------------5------2--|------------------ 
B|----------------------------------|----3---5-3-----3-------|------------------ 
G|----------------------------------|--4---4-----4-----4-----|------------------ 
D|-9---9/2-4------29-9------9/5-5--|------------------------|-9p8-9p8-9p8-9p8-- 
A|-9---9/2-2------29-9------9/5-5--|------------------------|------------------ 
D|-9---9/2-2------29-9------9/5-5--|------------------------|------------------ 
         
 
--------------------|--------------------------------------------------------- 
--------------------|--------------------------------------------------------- 
---------7----------|--------------------------------------------------------- 
-2---x-x-5----------|-2-2-2-4-4-4-5-5-5-7-7-7--------------------------------- 
-2---x-x-5----------|-2-2-2-4-4-4-5-5-5-7-7-7--------------------------------- 
-2---x-x-5----------|-2-2-2-4-4-4-5-5-5-7-7-7--------------------------------- 
                                                 
 
------------------------------------------------------------------------------ 
------------------------------------------------------------------------------ 
------------------------------------------------------------------------------ 
-x-x-/9-9-0-2-2-0-5-5-0-2-2--------------------------------------------------- 
-x-x-/9-9-0-2-2-0-5-5-0-2-2--------------------------------------------------- 
-x-x-/9-9-0-2-2-0-5-5-0-2-2--------------------------------------------------- 
                                            
 
-----------------|------------------------------------------------------------ 
-----------------|------------------------------------------------------------ 
-9---7---9---12--|------------------------------------------------------------ 
-9---7---9---12--|-9-9-12-9-12-9-0-2-2-0-5-5-0-2-2-0-------------------------- 
-7---5---7---10--|-9-9-12-9-12-9-0-2-2-0-5-5-0-2-2-0-------------------------- 
-7---5---7---10--|-9-9-12-9-12-9-0-2-2-0-5-5-0-2-2-0-------------------------- 
        
 
  
 
 
 
_______________________________________________________ 
Contribuição: Alceu Cintra De Oliveira Neto(AlceuKornSoadRageCypress)([email protected]) 
share this page

See Also: