E-Chords
Otoniel e Oziel

Sobre As Ondas(Tabs)

Otoniel e Oziel

roll up this ad to continue

          

1   |   |   |   |   |   |   |   |   |   |   |   |   |   |   |   |   |   |   |   |   
E |---------------|---------------|---------------|---------------|---------------| 
B |---------------|---------------|---------------|---------------|---------0---0-| 
G |-------------0-|-0-------------|-0---0-------0-|-2-------------|-0---2---------| 
D |-4---4---4-----|-----4---2---4-|---------4-----|-----4---4---4-|---------------| 
A |---------------|---------------|---------------|---------------|---------------| 
E |---------------|---------------|---------------|---------------|---------------| 



6   |   |   |   |   |   |   |   |   |   |   |   |   |   |   |   |   |   |   |   |   
E |---------------|---------------|---------------|---------------|---------------| 
B |-0---0---0-----|-0---0---2---2-|-2---2---2---0-|---------------|-0-------------| 
G |-------------2-|---------------|---------------|-2---0---0---0-|-----2---4---2-| 
D |---------------|---------------|---------------|---------------|---------------| 
A |---------------|---------------|---------------|---------------|---------------| 
E |---------------|---------------|---------------|---------------|---------------| 



11  |   |   |   |   |   |   |   |   |   |   |   |   |   |   |   |   |   |   |   |   
E |---------------|---------------|---------------|---------------|---------------| 
B |---------------|---------------|---------------|---------2---0-|-----2---0-----| 
G |-2---2---2---2-|-----2---2---0-|-----2---2---2-|-4---2---------|-2-----------2-| 
D |---------------|-5-------------|-4-------------|---------------|---------------| 
A |---------------|---------------|---------------|---------------|---------------| 
E |---------------|---------------|---------------|---------------|---------------| 



16  |   |   |   |   |   |   |   |   |   |   |   |   |   |   |   |   |   |   |   |   
E |---------------|---------0-----|-----0-------0-|-2-------0---2-|---------------| 
B |-3---0-------3-|-0-----------2-|---------3-----|-----3---------|-------------0-| 
G |---------2-----|-----2---------|-2-------------|---------------|-2---2---2-----| 
D |---------------|---------------|---------------|---------------|---------------| 
A |---------------|---------------|---------------|---------------|---------------| 
E |---------------|---------------|---------------|---------------|---------------| 



21  |   |   |   |   |   |   |   |   |   |   |   |   |   |   |   |   |   |   |   |   
E |---------------|---------------|---------------|-----0---------|-0-------0---2-| 
B |-----2---0-----|-2---0-------3-|-0-------3---0-|---------2-----|-----3---------| 
G |-2-----------2-|---------2-----|-----2---------|-2-----------2-|---------------| 
D |---------------|---------------|---------------|---------------|---------------| 
A |---------------|---------------|---------------|---------------|---------------| 
E |---------------|---------------|---------------|---------------|---------------| 



26  |   |   |   |   |   |   |   |   |   |   |   |   |   |   |   |   |   |   |   |   
E |-----0---2-----|---------------|---------------|---------------|---------------| 
B |-3-------------|---------------|-2-----------2-|-0-------3---0-|---------0-----| 
G |-------------2-|-2---2---4---2-|-----4---2-----|-----2---------|-2-----------2-| 
D |---------------|---------------|---------------|---------------|-----4---------| 
A |---------------|---------------|---------------|---------------|---------------| 
E |---------------|---------------|---------------|---------------|---------------| 



31  |   |   |   |   |   |   |   |  
E |---------------|--------------| 
B |---------------|--------------| 
G |-0---2---2---2-|-2---0--------| 
D |---------------|--------------| 
A |---------------|---------9----| 
E |---------------|--------------| 
share this page

See Also: