E-Chords
Osvaldo Fresedo

Vida Mia(Tabs)

Osvaldo Fresedo

roll up this ad to continue

 


This is a very beautiful arrangement for classical guitar. 


e|------------0--5---3------|--4-5--0------0-----------| 
B|-------1-3-------------5--|---------3-1----0---------| 
G|--2--------------------5--|-----------2--------------| 
D|----2----------3-----5----|-----------3----2-0-------| 
A|--0----------------3------|--0-----------------3-2---| 
E|------------3-------------|--------------------------| 


e|-------------0---1--3---4-----5------7---------7----| 
B|-------0-1-3-----1----1---1-----5------10-9-10---9--| 
G|--0-2------------2----0---0-----5----------------9--| 
D|----2---------------------2----------------------9--| 
A|----0---------------3---3-------7--------------7----| 
E|-------------3---1------------5------7--------------| 


   Rake          rake           rake 
e|-------------------------------1-0---0--1----------------|---------| 
B|--1-0---0-1--------------------3---3------1--0--------0--|---------| 
G|--2---2---2--0--2-0---0-2-2---------------2----2-1-2-----|---------| 
D|--3-------2-----3---3-----2-2-------------2--------------|--3-2-0--| 
A|----------------5---------3----2--------0----2-----------|---------| 
E|------------------------------------------------------0--|---------| 


e|------------0---5--3--------------|--4-5--0----------2-1-0------------------| 
B|------0-1-3----------5------------|---------3-1-0----------0-1-2------------| 
G|--2--------------------4-5--------|-----------2---2--------0-1-2------------| 
D|---------------------------4-5-2--|-----------3-2-2--------0-1-2--4-3-2-----| 
A|--0----------------3--------------|--0------------0-------------------------| 
E|------------3---1-----------------|--------------------------------------0--| 


e|------------------------0-1-2----5-2--5-4--|--0-1-2-------------| 
B|--5-6-7v----------------------1-------3-3--|-------------3---3--| 
G|-----------6--------2---------2-------4-4--|-------------2---1--| 
D|---------7---------------------------------|-------------2---0--| 
A|------0----------0-----------------2-------|--------2--2---2----| 
E|---------------0---------------------------|------0-------------| 


e|--0-1-2-/9--7-----5--|--5-6-7------------------|--5-6-7---9-7-------9--| 
B|------------------5--|----------------8-----5--|--------5-----7---7----| 
G|----------------6----|----------6-----6-----6--|--------6---7---7------| 
D|--------------7------|----------7---7-----7----|------------0----------| 
A|------------0--------|-------------------------|-----------------------| 
E|------0--------------|--------5---------5------|------5----------------| 


e|--7-8-9--------------------------9-7-----------| 
B|----------7---------------7-9-10-------9-8-9---| 
G|----------8-------------9----------------------| 
D|--------------7--9-8-7---------------9-9-8-9---| 
A|--------------9--------------------7-----------| 
E|--------7---7----------------------------------| 


e|--7-8-9------7----------7-9-7h9p7------7------------| 
B|--------7------7------------------10-9----------10--| 
G|----------7------7----------------------------------| 
D|------0----------------------------------7---7------| 
A|--------------------9-8-----------8----7---7--------| 
E|----------------------------------------------------| 


e|-----5-7-5--4-2-5-2----------------------0---| 
B|-----5---4---------------2---5-1-------------| 
G|-----------------------------------1-1---1---| 
D|---------------------4-3-2---------2-2-------| 
A|--4------3--2--------------------------------| 
E|-------------------------------0-0-----0-----| 


e|--0---2-4-2---------------|--7-8-9---7-----7-9-7-5-4-7----5--| 
B|--------------2----0-1-2--|----------7-----5--------------5--| 
G|--------------2----0-1-2--|--------7-------7------------6----| 
D|--------------2----0-1-2--|------0---------------------------| 
A|------------0----0--------|------------0/5-----------0----7--| 
E|--------------------------|----------------------------------| 


e|---------5-7-5--4-2-5-2-----------------------------|--<12>--|---0---| 
B|---------5---4---------------2---5-1-----0---0------|--------|---5---| 
G|-----------------------------------------2-----3-2--|--------|---6---| 
D|-------------------------4-3-2-----------0----------|--------|---6---| 
A|--6-5-4------3----2--------------------2---------0--|--------|---0---| 
E|-----------------------------------0-0--------------|--<12>--|-------| 
share this page

See Also: