E-Chords
Orange and Lemons

Blue moon(Tabs)

Orange and Lemons

Key: D
Standard Tuning 
 
Intro: 
 
e|----------9-7---------------------------------------------------------| 
B|-/10-7h10-----10/8--8-10-8-7------------10--------------7-------------| 
G|-----------------------------9-9/11--11----11-9-7-7-7h9---7-7---7-----| 
D|--------------------------------------------------------------9-------| 
A|----------------------------------------------------------------------| 
E|----------------------------------------------------------------------| 
 
e|-----------7/5-----| 
B|--10-10-8----------| 
G|-------------------| 
D|-------------------| 
A|-------------------| 
E|-------------------| 
 
 
Verse 1: (one strum per chord) 
 
       D  Bm  G 
Blue moon 
               A       D  Bm G 
You saw me standing alone 
            A           D  Bm  G 
Without a dream in my heart 
            A          D  Bm  G  A 
Without a love of my own 
 
 
Verse 2:(one strum per chord) 
 
       D  Bm  G 
Blue moon 
               A             D     Bm    G 
you knew just what i was there for 
                 A             D  Bm  G 
You heard me saying a prayer for 
             A           D        Bm  G  A 
Someone i really could care for 
 
 
Refrain:(one strum per chord) 
 
                  G        A        D 
And then there suddenly appeared before me 
          G          A         D 
The only one my arms will ever hold 
             G              D        F 
I heard somebody whisper 'please adore me,' 
              G                           A 
And when i looked the moon had turned to gold 
 
 
Interlude: 
 
e|----10--9--7------------2-------| 
B|--10--10-10--10-10-8p7--3-------| 
G|------------------------2-------| 
D|------------------------0-------| 
A|------------------------x-------| 
E|------------------------x-------| 
 
e|------------9h10-12p10--------------------------------| 
B|------10h12------------10---10h12-10------------------| 
G|--11----------------------11----------12-11--9/11-----| 
D|------------------------------------------------------| 
A|------------------------------------------------------| 
E|------------------------------------------------------| 
 
 
e---------------------------------------------------------| 
B|--10----------------------------------------------------| 
G|----11--------9h11/12-11p9----9-------------------------| 
D|-------12--12--------------12---12p11-------------------| 
A|--------------------------------------------------------| 
E|--------------------------------------------------------| 
 
e|--12-10-----------------9-10-12-10/14-12p10---| 
B|--------10--------10-12-----------------------| 
G|------------11h12-----------------------------| 
D|----------------------------------------------| 
A|----------------------------------------------| 
E|----------------------------------------------| 
 
 
e|---15--14--12--------------------------------------15-15-15-15---| 
B|-15--15--15--15-15-15-14-12---15-15-14-14-12-12----15-15-15-15---| 
G|-----------------------------------------------------------------| 
D|-----------------------------------------------------------------| 
A|-----------------------------------------------------------------| 
E|-----------------------------------------------------------------| 
 
 
Verse 1: (strum fast) 
 
       D  Bm  G 
Blue moon 
               A       D  Bm G 
You saw me standing alone 
            A           D  Bm  G 
Without a dream in my heart 
            A          D  Bm  G  A 
Without a love of my own 
 
 
Verse 2:(strum) 
 
       D  Bm  G 
Blue moon 
               A             D     Bm    G 
you knew just what i was there for 
                 A             D  Bm  G 
You heard me saying a prayer for 
             A           D        Bm  G  A 
Someone i really could care for 
 
 
Refrain:(strum fast) 
 
                  G        A        D 
And then there suddenly appeared before me 
          G          A         D 
The only one my arms will ever hold 
             G              D        F 
I heard somebody whisper 'please adore me,' 
              G                           A 
And when i looked the moon had turned to gold 
 
 
Last Verse: (strum fast) 
 
       D  Bm  G 
Blue moon 
             A      D  Bm G 
Now i'm no longer alone 
             A          D  Bm G 
Without a dream in my heart 
            A         D  Bm G 
Without a love of my own 
            A         D  Bm G 
Without a love of my own 
            A         D  Bm G 
Without a love of my own 
            A(hold)   D(end) 
Without a love of my own. 
 
 

roll up this ad to continue

share this page

See Also: