E-Chords
One Dollar Short

Ten Years(Tabs)

One Dollar Short

roll up this ad to continue

Key: A5
Normal Tuning 
 
INTRO/VERSE 
 
Guitar 1 
|-------0-------0-------0-------0-------------------------0-0-0-0--| 
|-------2-------2-------2-------2---2-2-2-2-2--2-2-2-2-2--0-0-0-0--| 
|--2222-2--4444-4--2222-2--4444-4---2-2-2-2-2--4-4-4-4-4--2-2-2-2--| 
|---------------------------------------------------------0-0-0-0--| 
|------------------------------------------------------------------| 
|------------------------------------------------------------------|x3 
pm.....    ....   .....    .... 
 
Guitar 2 {played quietly} 
|--12---12---10---10---9---9-------7----7---12---12---10---9------7--| 
|----10---10---10---10--10--10--10---10-------10---10---10--10--10---| 
|--------------------------------------------------------------------| 
|--------------------------------------------------------------------| 
|--------------------------------------------------------------------| 
|--------------------------------------------------------------------|x2 
 
CHORUS 
 
Both Guitars (mute b/w each chord) 
|----------------------------------------------------------| 
|----------------------------------------------------------| 
|----------------------------------------------------------| 
|------------------------------------------------7777-7----| 
|--7777-7--2222-2-7777-7-6666-6/-7777-7--2222-2--5555-5\4--| 
|--5555-5--0000-0-5555-5-4444-4/-5555-5--0000-0------------| 
 
-- **THEN STRUM CONSTANTLY** -- 
 
PRE-VERSE  
 
Guitar 1  
|-----| 
|-----| 
|-----| 
|-----| 
|--4--| 
|--2--| 
 
Guitar 2 
|------------------------------------------------| 
|------------------------------------------------| 
|--11---14--/13/14\13/14--11---14--/13/14\13/14--| 
|---X----X----X--X--X--X---X----X----X--X--X--X--| 
|---9---12--/11/12\11/12---9---12--/11/12\12/12--| 
|------------------------------------------------| 
 
VERSE 2 
 
Guitar 1 
|-----------------------------------------------| 
|------------------------22222-22222-222222222--| 
|--22222-22222-000002222-22222-44444-222222222--| 
|--22222-00000-000002210------------------------| 
|-----------------------------------------------| 
|-----------------------------------------------|x3 
pm............................................... 
 
BREAK 
Guitar 1 (u can make it an A5 if u want) 
|--0-0-0-0-0--| 
|--0-0-0-0-0--| 
|--2-2-2-2-2--| 
|--0-0-0-0-0--| 
|-------------| 
|-------------|etc 
 
CHORUS 2 
 
Both guitars 
|-----------------------------------------------------------| 
|-----------------------------------------------------------| 
|-----------------------------------------------------------| 
|-----------------------------------------------7777-7-777--| 
|--7777-7--2222-2-7777-7-6666-6/-7777-7--2222-2-5555-5\444--| 
|--5555-5--0000-0-5555-5-4444-4/55555-5--0000-0-------------|x2 
 
BRIDGE(FIRST PART) 
 
Guitar 1 end chorus on F#5 (like before) 
 
Guitar 2 
|-------------------------------| 
|-------------------------------| 
|--11---7---11-----11---7---11--| 
|---X---X----X------X---X----X--| 
|---9---5----9------9---5----9--| 
|-------------------------------| 
 
BRIDGE(2nd PART) 
 
Guitar 1(not exact strumming) 
|----------------------------------| 
|----------------------------------| 
|--9---14---16----9---14---16--18--| 
|--X----X----X----X----X----X---X--| 
|--7---12---14----7---12---14--16--| 
|----------------------------------|x4 
 
Guitar 2 
|---------|------| 
|---------|------| 
|--18*----|--16--| 
|---X*----|---X--| 
|--16*----|--14--| 
|---------|------| 
***just keep playin this note*** 
{YOU CAN PLAY THE HIGHER NOTES ON A HIGHER STRING IF YOU FIND IT EASIER} 
 
CHORUS 3 - SAME (but guitar 2 plays some notes in the background) 
 
share this page

See Also: