E-Chords
One Dollar Short

Some Assembly Required(Tabs)

One Dollar Short

roll up this ad to continue

Key: F5
Transcribed by Paul @ OzTabs ([email protected]) 
www.ozmusic-central.com.au/oztabs 
 
Transcribed: 19 May 2004 
 
Notes: Listen to the song to get the strumming correct. The verse is 
sometimes played palm muted, and other times not, play along to the 
recording & you'll know what I'm talking about. The lead bit during the 
intro is nice & fast... gotta practice it a few times to get it right! 
Comments & corrections welcome.  
 
 
INTRO 
    F5                      G#5         C#5               G#5      A#5 
E-|----------11----------------11-----|----------11----------------11/13-13-|- 
B-|----8-9-8----9-8-9-11-9-8-9----9-8-|----8-9-8----9-8-9-11-9-8-9----------|- 
G-|-10--------------------------------|-10----------------------------------|- 
D-|-----------------------------------|-------------------------------------|-(x 2) 
A-|-----------------------------------|-------------------------------------|- 
E-|-----------------------------------|-------------------------------------|- 
 
VERSE CHORDS: 
    F5                   G#5    C#5           G#5    A#5 
E-|--------------------------------------------------------|- 
B-|--------------------------------------------------------|- 
G-|-----------------------------6-6-6--6-6-6---------------|- 
D-|-3-3-3--3-3-3--3-3-3--6-6-6--6-6-6--6-6-6--6-6-6--8-8-8-|- 
A-|-3-3-3--3-3-3--3-3-3--6-6-6--4-4-4--4-4-4--6-6-6--8-8-8-|- 
E-|-1-1-1--1-1-1--1-1-1--4-4-4----------------4-4-4--6-6-6-|- 
 
PRE CHORUS CHORDS: 
    C#5             D#5 
E-|----------------------------------|- 
B-|----------------------------------|- 
G-|-6-6-6-6-6-6-6-6--8-8-8-8-8-8-8-8-|- 
D-|-6-6-6-6-6-6-6-6--8-8-8-8-8-8-8-8-|-(x 2) 
A-|-4-4-4-4-4-4-4-4--6-6-6-6-6-6-6-6-|- 
E-|----------------------------------|- 
 
CHORUS CHORDS: 
E-|--------------------------------------------------------|- 
B-|--------------------------------------------------------|- 
G-|---------------6-6-6--6-6-6----------------8-8-8--8-8-8-|- 
D-|-3-3-3--3-3-3--6-6-6--6-6-6--6-6-6--6-6-6--8-8-8--8-8-8-|- 
A-|-3-3-3--3-3-3--4-4-4--4-4-4--6-6-6--6-6-6--6-6-6--6-6-6-|- 
E-|-1-1-1--1-1-1----------------4-4-4--4-4-4---------------|- 
 
 
share this page

See Also: