E-Chords
One Dollar Short

Shots Were Fired (Bloodstains)(Tabs)

One Dollar Short

roll up this ad to continue

Key: D
Tabbed by [email protected] 
 
TUNING D A D G B e  
 
INTRO 
 
GUITAR 1 
|----------------------------------------------------------------------------------------|-- 
|----------------------------------------------------------------------------------------|-- 
|---------------9/11-11-9/11-11-11-11-9/11-11-9/14-14-14-14/16\14-9/11-11-9/11-11-11-11--|-- 
|--0-0-4-4-4-4--X--X--X-X--X--X--X--X-X--X--X-X--X--X--X--X--X--X-X--X--X-X--X--X--X--X--|-- 
|--0-0-4-4-4-4--7/-9--9-7/-9--9--9--9-7/-9--9-7/12-12-12-12/14\12-7/-9--9-7/-9--9--9--9--|-- 
|--0-0-4-4-4-4---------------------------------------------------------------------------|-- 
 
-----------------------------------------------------------------------------------------| 
-----------------------------------------------------------------------------------------| 
--9/11-11-9/11-11-11-11-9/11-11-9/11-11-11-11-9/11/14-14-14/16\14-9/11-11-9/11-11-11-11--| 
--X--X--X-X--X--X--X--X-X--X--X-X--X--X--X--X-X--X--X--X--X--X--X-X--X--X-X--X--X--X--X--| 
--7/-9--9-7/-9--9--9--9-7/-9--9-7/-9--9--9--9-7/-9/12-12-12/14\12-7/-9--9-7/-9--9--9--9--| 
-----------------------------------------------------------------------------------------| 
 
 
GUITAR 2 
|---------------------------| 
|---------------------------| 
|---------------------------| 
|--0-0-4-4-4-4-9-9-4-4-4-4--| 
|--0-0-4-4-4-4-7-7-2-2-2-2--| 
|--0-0-4-4-4-4--------------|x4 
 
 
BRIDGE {i guess you can call it that, where scotte sings 'i dont wanna die, ALONE' play this  
when he sings the word 'alone'} 
 
GUITAR 1 
|------------------------------------------------------| 
|------------------------------------------------------| 
|------------------------------------------------------| 
|-----------------------------------4-4-4-4-4-4-4-4-4--| 
|-----------------------------------4-4-4-4-4-4-4-4-4--| 
|-----------------------------------4-4-4-4-4-4-4-4-4--| 
 
GUITAR 2 
|------------------------------------------------------| 
|------------------------------------------------------| 
|------------------------------------------------------| 
|--11-11-11-11-11-11-11-11-11-11-11-11-11-11-11-11-11--| 
|---9--9--9--9--9--9--9--9--9--9--9--9--9--9--9--9--9--| 
|------------------------------------------------------| 
 
REPEAT VERSE AGAIN {SAME AS BEFORE} 
 
CHORUS  
 
GUITAR 1 
|----------------------------------------------------------| 
|----------------------------------------------------------| 
|--6-6-6-6-6-6-6-6-6-6-6-6-6-6-6-9/11-11-11-11-9/11-11-11--| 
|--X-X-X-X-X-X-X-X-X-X-X-X-X-X-X-X--X--X--X--X-X--X--X--X--| 
|--4-4-4-4-4-4-4-4-4-4-4-4-4-4-4-7/-9--9--9--9-7/-9--9--9--| 
|----------------------------------------------------------| 
 
GUITAR 2 
|-------------------------------------------------| 
|-------------------------------------------------| 
|-------------------------------------------------| 
|--4-4-4-4-4-7-7-7-7-7-4-4-4-4-4-2/4-44-2/4-44\2--| 
|--4-4-4-4-4-5-5-5-5-5-2-2-2-2-2-2/4-44-2/4-44\2--| 
|--4-4-4-4-4---------------------2/4-44-2/4-44\2--| 
 
BRIDGE 2 
 
GUITAR 1 
|-----------------------------| 
|-----------------------------| 
|-/11~-----7~----/11~-----7~--| 
|---X------X-------X------X---| 
|--/9~-----5~-----/9~-----5~--| 
|-----------------------------| 
 
GUITAR 2 {im comin back to this} 
|-- 
|-- 
|-- 
|-- 
|-- 
|-- 
 
SOLO 1 
 
GUITAR 1 {the rythm changes a bit every now n then, i'll you you work it out} 
|---------------------------|--------------------------------|-----------------------------|-- 
|-----5-5-----5-5-55-5------|-----5-5-----5-5-55/7\5-5-------|-----5-5-----5-5-55-5--------|-- 
|--4h7-----4h7--------------|--4h7-----4h7-------------------|--4h7----4h7-----------------|-- 
|---------------------------|--------------------------------|-----------------------------|-- 
|---------------------------|--------------------------------|-----------------------------|-- 
|---------------------{x3}--|--------------------------{x1}--|-----------------------{x3}--|-- 
 
----------0-0-0-0-0-0--| 
------5-5/7-7-7-7-7-7--| 
--4h7------------------| 
-----------------------| 
-----------------------| 
-----------------------| 
 
GUITAR 2 
|----------------------------------------------------------------------| 
|----------------------------------------------------------------------| 
|----------------------------------------------------------------------| 
|--7-7-7-7-7-7-7-7-7-7-7-7-7-7-9-9-9-9-9-9-9-9-9-9-9-9-9-9-9-9---------| 
|--5-5-5-5-5-5-5-5-5-5-5-5-5-5-7-7-7-7-7-7-7-7-7-7-7-7-7-7-7-7-{etc.}--| 
|----------------------------------------------------------------------| 
 
REPEAT VERSE AND CHORUS 
 
END SOLO 
 
GUITAR 1 
|----------------------------|------------------------------|----------------------------|-- 
|------5/7b-\5---------------|------5/7b-\5-----5h7h9-9p7b--|------5/7b-\5---------------|-- 
|--4h7---------7-7-4-2-1-2b--|--4h7---------7-4-------------|--4h7---------7-7-4-2-1-2b--|-- 
|----------------------------|------------------------------|----------------------------|-- 
|----------------------------|------------------------------|----------------------------|-- 
|----------------------------|------------------------------|----------------------------|-- 
 
--------------0-0-0-0-0-0-0--| 
------5/7b-\5-7-7-7-7-7-7-7--| 
--4h7------------------------| 
-----------------------------| 
-----------------------------| 
-----------------------------| 
 
GUITAR JUST STRUMS BETWEEN D5 and A5 AGAIN. 
 
GUITAR 2 FINISHES WITH 
|--------------| 
|--------------| 
|--------------| 
|--7-7-7-7-4/--| 
|--5-5-5-5-4/--| 
|----------4/--| 
 
share this page

See Also: