E-Chords
One Dollar Short

Robot(Tabs)

One Dollar Short

roll up this ad to continue

Key: E5
NORMAL TUNING 
 
INTRO 
 
GUITAR 1 
|-------------------------------------------------| 
|-------------------------------------------------| 
|-------------------------------------------------| 
|-------------------------------------------------| 
|--3-3-3-3-3-3-3-2-2-0--------------5-5-5-5-5-----| 
|----------------------0-0-0-0-0-0-0----------x2--| 
pm............................................. 
 
GUITAR 1 
|---------------------------------------------------------------------|-- 
|--5-5-5-5-5-5-5-5-5-5-7-7-7-8-8-8-8-8-8-8-8-10-10-10-10-10-10-8-7-7--|-- 
|---------------------------------------------------------------------|-- 
|---------------------------------------------------------------------|-- 
|---------------------------------------------------------------------|-- 
|----------------------------------------------------------------x3---|-- 
 
---------------------------------------------| 
--5-5-5-5-5-5-5-5-5-5-7-7-7-8--8-8-10-8-7-5--| 
---------------------------------------------| 
---------------------------------------------| 
---------------------------------------------| 
----------------------------------------x1---| 
 
GUITAR 2 
|----------------------------------------------------------| 
|----------------------------------------------------------| 
|----------------------------------------------------------| 
|--5-5-5-5-5-5-5-5-------------------7-7-7-7-7-7-7-7-X-7-5-| 
|--3-3-3-3-3-3-3-3-2-2-2-2-2-2-2-2-2-5-5-5-5-5-5-5-5-X-5-3-| 
|------------------0-0-0-0-0-0-0-0-0-----------------------|x4* 
*on 4th time just strum the E5 and D5 once each* 
 
VERSE 
 
GUITAR 2 
|-----------------------------------------------------| 
|-----------------------------------------------------| 
|-----------------------------------------------------| 
|--5-5-5-5-5-X-5-5-------------------7-7-7-7-7-7-X-7--| 
|--3-3-3-3-3-X-3-3-2-2-2-2-2-2-2-2-2-5-5-5-5-5-5-X-5--| 
|------------------0-0-0-0-0-0-0-0-0------------------|x2 
pm..................................................... 
 
BOTH GUITARS 
|-----------------------------------------------------|------------------ 
|-----------------------------------------------------|------------------ 
|-----------------------------------------------------|------------------ 
|--5-5-5-5-5-X-5-5-------------------7-7-7-7-7-7-X-7--|--5-5-5-5-5-5-X-5- 
|--3-3-3-3-3-X-3-3-2-2-2-2-2-2-2-2-2-5-5-5-5-5-5-X-5--|--3-3-3-3-3-3-X-3- 
|------------------0-0-0-0-0-0-0-0-0------------------|------------------ 
 
--0----------| 
--0----------| 
--1----------| 
--2----/7-7--| 
--2----/5-5--| 
--0----------| 
 
PRE-CHORUS 
 
GUITAR 1 
|--------------------------------------------------------| 
|--8-8-8-8-88-8---8-8-8-8-88-8---8-8-8-8-88-8------------| 
|--5-5-5-5-55-5---5-5-5-5-55-5---5-5-5-5-55-5-9-9-9-9-9--| 
|---------------------------------------------7-7-7-7-7--| 
|--------------------------------------------------------| 
|--------------------------------------------------------| 
 
GUITAR 2 
|---------------------------------------------------------| 
|---------------------------------------------------------| 
|---------------------------------------------------------| 
|--7-7-7-7--------7-7-7-7--------7-7-7-7-------9-9-9-9-9--| 
|--5-5-5-5--------5-5-5-5--------5-5-5-5-------7-7-7-7-7--| 
|---------------------------------------------------------| 
 
CHORUS 
 
BOTH GUITARS 
|-----------------------------| 
|-----------------------------| 
|--1--------------------------| 
|--2----5---------7----9------| 
|--2----3----5----5----7------| 
|--0---------3------------x2--|** 
**repeat 2 more times but strum constant** 
 
VERSE 2 - SAME 
--------------- 
PRE-CHORUS 2 - SAME 
--------------- 
CHORUS 2 - SAME...END ON : 
 
GUITAR 1 
|-----------------| 
|--8-8-8-8-8-8-5--| 
|--5-5-5-5-5-5-2--| 
|-----------------| 
|-----------------| 
|-----------------| 
GUITAR2 
|-----------------| 
|-----------------| 
|--------------1--| 
|--------------2--| 
|--------------2--| 
|--------------0--| 
 
BRIDGE 
 
GUITAR 1 
|----------------------------------| 
|--1/5-5-5-5-3-3-3-3-------5-5-5-5-| 
|-------------------4-4-4-4--------| 
|----------------------------------| 
|----------------------------------| 
|----------------------------------|x4 
pm................................. 
 
GUITAR 2 
|--------------------------------------------------------| 
|--5--7-8-10-8--5--7-8-10-8--5-----7-----8-----10-10-10--| 
|------------------------------4-4---4-4---4-4-----------| 
|--------------------------------------------------------| 
|--------------------------------------------------------| 
|--------------------------------------------------------|** 
**start on guitar 1 second bar** 
 
OUTRO 
 
GUITAR 1 
|---------------------------------------------------------------------| 
|--5-5-5-5-5-5-5-5-5-5-7-7-7-8-8-8-8-8-8-8-8-10-10-10-10-10-10-8-7-7--| 
|---------------------------------------------------------------------| 
|---------------------------------------------------------------------| 
|---------------------------------------------------------------------| 
|----------------------------------------------------------------x2---| 
 
GUITAR 2 - C5  E5  D5 (same as intro) x2 
--------------------- 
GUITAR 1 
|--12-12-12-12-12-12-12-12-10-8-7-7-7-7-7-7-7---------------------------| 
|--------------------------------------------8-10-10-10-10-10-10-8-7-7--| 
|-----------------------------------------------------------------------| 
|-----------------------------------------------------------------------| 
|-----------------------------------------------------------------------| 
|------------------------------------------------------------------x2---| 
 
GUITAR 2 
|---------------------------------------------------------------------| 
|--5-5-5-5-5-5-5-5-5-5-7-7-7-8-8-8-8-8-8-8-8-10-10-10-10-10-10-8-7-7--| 
|---------------------------------------------------------------------| 
|---------------------------------------------------------------------| 
|---------------------------------------------------------------------| 
|----------------------------------------------------------------x2---| 
 
END ON  E5  D5 D5 D5  C5 
 
share this page

See Also: