E-Chords
One Dollar Short

Perfect Day(Tabs)

One Dollar Short

roll up this ad to continue

INTRO (guitar 1): 
e-------------------------------|-----------------------| 
B-------------------------------|-----------------------| 
G-----11-----11-----11----------|-11--------------------| 
D---9----8-9------9----11-9-8h9-|----9-9h11-9-8-8h9-8---| 
A-9-------------7---------------|-----------------------| 
E-------------------------------|-----------------------| 
 
e-------------------------| 
B-------------------------| 
G--11---------------------| 
D-----9-8-11-9-8-6-9-8-4--| 
A-------------------------| 
E-------------------------| 
 
INTRO (guitar 2): 
e-----------|-----------------------------------------------------| 
B-----------|-----------------------------------------------------| 
G-----------|--4-4-4-4-4-4-4-4------------------------------------| 
D--2-----4--|--4-4-4-4-4-4-4-4---4-4-4-4-4-4-4-4--2-2-2-2-2-2-2---| 
A--2-----4--|--2-2-2-2-2-2-2-2---4-4-4-4-4-4-4-4--2-2-2-2-2-2-2---| 
E--0-----2--|--------------------2-2-2-2-2-2-2-2--0-0-0-0-0-0-0---| 
 
e---------------------------| 
B---------------------------| 
G--9-9-9-9--9-9-9-9--9-9-9--| 
D--9-9-9-9--9-9-9-9--9-9-9--| 
A--7-7-7-7--7-7-7-7--7-7-7--| 
E---------------------------| 
 
VERSE: 
e---------------------------------------------------| 
B---------------------------------------------------| 
G--9-x-x-x-x-9-8-x-x-x-x-8-8-x-x-x-x-8-6-x-x-x-x-6--| 
D--9-x-x-x-x-9-9-x-x-x-x-9-6-x-x-x-x-6-4-x-x-x-x-4--| 
A--7-x-x-x-x-7-6-x-x-x-x-6--------------------------| 
E---------------------------------------------------| 
 
B-------------------------------------------------------| 
B-------------------------------------------------------| 
G--9-x-x-x-x-9-8-x-x-x-x-8------------------------------| 
D--9-x-x-x-x-9-9-x-x-x-x-9--6-6-6-6-6--4-4-4-4-4-4-4-4--| 
A--7-x-x-x-x-7-6-x-x-x-x-6--6-6-6-6-6--4-4-4-4-4-4-4-4--| 
E---------------------------4-4-4-4-4--2-2-2-2-2-2-2-2--| 
 
CHORUS: 
e----------------------------------------------------------------------|----| 
B----------------------------------------------------------------------|----| 
G--4-4-4-4-4-4-4-4-------------------6-6-6-6-6-6-6-6--9-9-9-9-9-9-9-9--|----| 
D--4-4-4-4-4-4-4-4--4-4-4-4-4-4-4-4--6-6-6-6-6-6-6-6--9-9-9-9-9-9-9-9--|-2--| 
A--2-2-2-2-2-2-2-2--4-4-4-4-4-4-4-4--4-4-4-4-4-4-4-4--7-7-7-7-7-7-7-7--|-2--| 
E-------------------2-2-2-2-2-2-2-2------------------------------------|-0--| 
 
BRIDGE: 
e---------|---------------------|----------------------| 
B---------|---------------------|----------------------| 
G--4/6\4--|--4/6--4/8--4/9-8-4--|--4/6--4/8--4/9-8-11--| 
D---------|---------------------|----------------------| 
A--2/4\2--|--2/4--2/6--2/7-6-2--|--2/4--2/6--2/7-6-9---| 
E---------|---------------------|----------------------| 
 
e---------------------------------| 
B---------------------------------| 
G--11-11-11-11-9-9-9-9--8/9\8--4--| 
D---------------------------------| 
A--9--9--9--9--7-7-7-7--6/7\6--2--| 
E---------------------------------| 
 
------------------------------------------------------------------------------- 
 
 
? 2002 PunkHardcore.com 
 
share this page

See Also: