E-Chords
One Dollar Short

Ode To Joy(Tabs)

One Dollar Short

roll up this ad to continue

intro 
guitar 2- 
E--10------------------------------------------------------------- 
B-----10-8-7-8-10-8-7-5-3----------------------------------------- 
G----------------------------------------------------------------- 
D----------------------------------------------------------------- 
A----------------------------------------------------------------- 
E----------------------------------------------------------------- 

E----------------------------------------------------------------- 
B----------------------------------------------------------------- 
G----------------------------------------------------------------- 
D----------------------------------------------------------------- 
A--10-9-7h9-5-7--------------------------------------------------- 
E----------------------------------------------------------------- 

guitar 1- 
E----------------------------------------------------------------- 
B----------------------------------------------------------------- 
G--7-------------------------------------------------------------- 
D--7---5---7------------------------------------------------------ 
A--5---5---7------------------------------------------------------ 
E------3---5------------------------------------------------------ 

verse- 
guitar 1- 
E----------------------------------------------------------------- 
B----------------------------------------------------------------- 
G--7-------------------------------------------------------------- 
D--7---5---7------------------------------------------------------ 
A--5---5---7------------------------------------------------------ 
E------3---5------------------------------------------------------ 

guitar 2- 
at the end of verse 
E----------------------------------------------------------------- 
B--10-8-7-5------------------------------------------------------- 
G----------------------------------------------------------------- 
D----------------------------------------------------------------- 
A----------------------------------------------------------------- 
E----------------------------------------------------------------- 

Chorus- 
guitar 1- 
E----------------------------------------------------------------- 
B----------------------------------------------------------------- 
G-7-7-7----------------------------------------------------------- 
D-7-7-7-7-7-7-5-5-5-5--------------------------------------------- 
A-5-5-5-7-7-7-5-5-5-5--------------------------------------------- 
E-------5-5-5-3-3-3-3--------------------------------------------- 

guitar 2- 
After `joy to the world` 
E----------------------------------------------------------------- 
B----------------------------------------------------------------- 
G---11-12-14-12-11-12--------------------------------------------- 
D----------------------------------------------------------------- 
A----------------------------------------------------------------- 
E----------------------------------------------------------------- 

Last verse- 
Guitar 1- 
E----------------------------------------------------------------- 
B----------------------------------------------------------------- 
G----------------------------------------------------------------- 
D----------------------------------------------------------------- 
A---12-9-10-10-10-4h5-4-5----------------------------------------- 
E----------------------------------------------------------------- 

solo- 
Guitar 2- 
E----------------------------------------------------------------- 
B----------------------------------------------------------------- 
G----------------------------------------------------------------- 
D-12--11---------12--11---------12--11---------12-11-------------- 
A---------12--9----------12--9----------12--9--------12-9-12-9-10- 
E----------------------------------------------------------------- 

E----------------------------------------------------------------- 
B----------------------------------------------------------------- 
G----------------------------------------------------------------- 
D-------12-11------------12--------------------------------------- 
A-9-----------12-9-10-12------------------------------------------ 
E----------------------------------------------------------------- 
share this page

See Also: