E-Chords
One Dollar Short

From The Start(Tabs)

One Dollar Short

roll up this ad to continue

key:  
n = Downstroke    v = Upstroke  * = Mute  
 
Intro 3 Times  
 
|-3-------8-------7------|  
|---3-------8-------8----|  
|-----0-------0-------0--|  
|------------------------|  
|------------------------|  
|------------------------|  
 
Lead 2 Times  
 
|------------------------------------------14----15  
|----12----13-12-13-15-13-12-13-12------15----15---  
|-12----12-------------------------12--------------  
|--------------------------------------------------  
|--------------------------------------------------  
|--------------------------------------------------  
 
-14-15-17-15-14-----------------------------------|  
----------------15-----12----13-12-13-15-13-12----|  
--------------------12----12-------------------12-|  
--------------------------------------------------|  
--------------------------------------------------|  
--------------------------------------------------|  
 
Verse 4 Times  
 
|------------------------------------  
|------------------------------------  
|------------------------------------  
|-5-5-5555-5-5-555-------------------  
|-3-3-3333-3-3-333--5-5-5555-5-5-555-  
|-------------------3-5-3333-3-3-333-  
  n n nvnv v n nvnv etc...  
 
------------------------------------|  
------------------------------------|  
------------------------------------|  
-7-7-7777-7-7-777--9-9-9999-9-9-999-|  
-5-5-5555-5-5-555--7-7-7777-7-7-777-|  
------------------------------------|  
 
Lead Again  
 
Harmony  
 
|-------------------  
|-------------------  
|-7-------11-12--7--  
|-*-------*---*--*--  
|-5-------9--10--5--  
|-------------------  
 
Outro  
 
|------------------------------------------------------|  
|------------------------------------------------------|  
|------------------------------------------------------|  
|------------------5-5-5555-5-5-555------------7--7--7-|  
|-3-3-3333-3-3333--3-3-3333-3-3-333--5-5-5555--5--5--5-|  
|-1-1-1111-1-1111--------------------3-3-3333----------|  
share this page

See Also: