E-Chords
One Dollar Short

Friend(Tabs)

One Dollar Short

roll up this ad to continue

Intro 
Guitar 1 
e|---------------------------------------------------------------| 
B|---------------------------------------------------------------| 
G|-xx4x-xx4x---------------------7~------------------------------| 
D|-xx4x-xx4x-xx4x-xx4x-xx5x-xx5x-7~------------------------------| 
A|-xx2x-xx2x-xx4x-xx4x-xx5x-xx5x-5~------------------------------| 
E|-----------xx2x-xx2x-xx3x-xx3x---------------------------------| 

Guitar 2 
e|---------------------------------------------------------------| 
B|---------------------------------------------------------------| 
G|---------------------------------------------------------------| 
D|---------------------------------------------------------------| 
A|-------------------------------4h5-----------------------------| 
E|---------------------------------------------------------------| 

Verse x 2 
e|---------------------------------------------------------------| 
B|---------------------------------------------------------------| 
G|-4xxxx4---------------7xx7xx7----------------------------------| 
D|-4xxxx4-4xxxx4-5xxxx5-7xx7xx7----------------------------------| 
A|-2xxxx2-4xxxx4-5xxxx5-5xx5xx5----------------------------------| 
E|--------2xxxx2-3xxxx3------------------------------------------| 

Pre Chorus x2 
e|----------------------|-----------------------------------------| 
B|----------------------|-----------------------------------------| 
G|-4444-----------7777--|-77-77-----------------------------------| 
D|-4444-4444-5555-7777--|-77-77-----------------------------------| 
A|-2222-4444-5555-5555--|-55-55-----------------------------------| 
E|------2222-3333-------|-----------------------------------------| 
          2nd time end with ^ 

Verse x 2 
Pre Chorus x2 

Chorus x 2 
e|------------------------------------------------------------| 
B|------------------------------------------------------------| 
G|-44444444444444-77777777-66-66------------------------------| 
D|-xxxxxxxxxxxxxx-xxxxxxxx-xx-xx------------------------------| 
A|-22222222222222-55555555-44-44------------------------------| 
E|------------------------------------------------------------| 

Interlude x 2 
e|---------------------------------------------------------------| 
B|---------------------------------------------------------------| 
G|-4444------7777------------------------------------------------| 
D|-4444-4444-7777-5555-------------------------------------------| 
A|-2222-4444-5555-5555-------------------------------------------| 
E|------2222------3333-------------------------------------------| 

Solo 

Guitar 1 x 2 
e|---------------------------------------------------------------| 
B|---------------------------------------------------------------| 
G|---4-6-7-6666-7-9-11111111-------------------------------------| 
D|---x-x-x-xxxx-x-x-x-x-x-x--------------------------------------| 
A|---2-4-5-4444-5-7-9-9-9-9--------------------------------------| 
E|---------------------------------------------------------------| 

Guitar 2 x 2 
e|---------------------------------------------------------------| 
B|---------------------------------------------------------------| 
G|-4444------7777------------------------------------------------| 
D|-4444-4444-7777-5555-------------------------------------------| 
A|-2222-4444-5555-5555-------------------------------------------| 
E|------2222------3333-------------------------------------------| 

Outro x 2 
e|------------------|--------------------------------------------| 
B|------------------|--------------------------------------------| 
G|-4-4---------7-7--|-4~-----------------------------------------| 
D|-4-4-4-4-5-5-7-7--|-4~-----------------------------------------| 
A|-2-2-4-4-5-5-5-5--|-2~-----------------------------------------| 
E|-----2-2-3-3------|--------------------------------------------| 
    2nd time end with ^ 
share this page

See Also: