E-Chords
One Dollar Short

Colour Red(Tabs)

One Dollar Short

roll up this ad to continue

Australia 
ONE DOLLAR SHORT - COLOUR RED 
 
Verse 
e|------------------------------------------------------| 
B|------------------------------------------------------| 
G|-4----4----7------------------------------------------| 
D|-4----4----7----7-------------------------------------| 
A|-2----2----5----7-------------------------------------| 
E|----------------5-------------------------------------| 
 
Chorus 
e|------------------------------------------------------| 
B|------------------------------------------------------| 
G|-7----------------------------------------------------| 
D|-7---------7----5-------------------------------------| 
A|-5---------7----5-------------------------------------| 
E|-----------5----3-------------------------------------| 
 
Post chorus 
e|-0h2-2-2-0h2-2-2-x-x-x-x------------------------------| 
B|-----------------x-x-x-x------------------------------| 
G|-----------------x-x-x-x------------------------------| 
D|-----------------x-x-x-x------------------------------| 
A|------------------------------------------------------| 
E|------------------------------------------------------| 
 
Verse 
 
Pre Chorus 
e|------------------------------------------------------| 
B|------------------------------------------------------| 
G|-4---------7------------------------------------------| 
D|-4---------7------------------------------------------| 
A|-2---------5------------------------------------------| 
E|------------------------------------------------------| 
 
Chorus 
 
Interlude 
e|-------------------|----------------------------------| 
B|------10----12-10--|------10----12-10-----------------| 
G|-5/11----11--------|---11----11-----------------------| 
D|-------------------|-9--------------------------------| 
A|-------------------|----------------------------------| 
E|-------------------|----------------------------------| 
 
share this page

See Also: