E-Chords
Olivia Lunny

Bedsheets(Tabs)

Olivia Lunny

roll up this ad to continue

Riff I 

E|------------------------------------------------------| 
B|-------13-13------12-12---------17-17--------17-17----| 
G|------------12-----------------------5-------------5--| 
D|------------------------------------------------------| 
A|-12-12------------10-10----15-15--------15-15---------| 
E|------------------------------------------------------| 

E|------------------------------------------------------| 
B|-------13-13-----12-12--------5-5-------5-5-----------| 
G|------------12-------------------5---------5----------| 
D|------------------------------------------------------| 
A|-12-12-----------10-10-----12--------12---------------| 
E|-------------------------13--------13-----------------| 

E|------------------------------------------------------| 
B|-------13-13------12-12---------17-17--------17-17----| 
G|------------12-----------------------5-------------5--| 
D|------------------------------------------------------| 
A|-12-12------------10-10----15-15--------15-15---------| 
E|------------------------------------------------------| 

E|------------------------------------------------------| 
B|-------13-13-----12-12--------5-5-------5-5-----------| 
G|------------12-------------------5---------5----------| 
D|------------------------------------------------------| 
A|-12-12-----------10-10-----12--------12---------------| 
E|-------------------------13--------13-----------------| 


Riff II 

E|------------------------------------------------------| 
B|-------13-13------12-12---------17-17--------17-17----| 
G|------------12-----------------------5-------------5--| 
D|------------------------------------------------------| 
A|-12-12------------10-10----15-15--------15-15---------| 
E|------------------------------------------------------| 

E|------------------------------------------------------| 
B|-------13-13-----12-12--------5-5-------5-5-----------| 
G|------------12-------------------5---------5----------| 
D|------------------------------------------------------| 
A|-12-12-----------10-10-----12--------12---------------| 
E|-------------------------13--------13-----------------| 

E|------------------------------------------------------| 
B|-------13-13------12-12---------17-17--------17-17----| 
G|------------12-----------------------5-------------5--| 
D|------------------------------------------------------| 
A|-12-12------------10-10----15-15--------15-15---------| 
E|------------------------------------------------------| 

E|------------------------------------------------------| 
B|-------13-13-----12-12--------5-5---------------------| 
G|------------12-------------------5--------------------| 
D|------------------------------------------------------| 
A|-12-12-----------10-10-----12-------------------------| 
E|-------------------------13---------------------------| 


Riff I 

Cigarette inside your hand 
Wish you would hold me like that 
Breathe me in and pull me close 
I can only wait so long 

Riff II 

Do you think of me in your bedsheets? 
Do they feel the same without me? 
'Cause the flame is out and now I choke 
As the love we had it turns to smoke 

{Refrão} - Riff I 

     I got two more days 
     'Til I leave this place 
     And you stay the same  
     I got two more days 


Riff I 

Is it true you love me, yes or no? 
'Cause back in June you told me so 
And now I'm in your house alone 
The embers burn my body slow 

Riff II 

Do you think of me in these bed sheets? 
Do you hear me, babe? I'm screaming 
'Cause I thought I loved you now I know 
That good love shouldn't turn to smoke 


{Refrão} - Riff I 

     I got two more days 
     'Til I leave this place 
     And you stay the same  
     I got two more days 

Riff I 

Leaving here I've gotta go 
I'm leaving you I have to grow 
Leaving 'cause I gotta go 
I'm leave you I have to grow 

Leaving here I've gotta go 
I'm leaving you I have to grow 
Leaving 'cause I gotta go 
I'm leave you I have to grow 

Riff III 

E|---------------------------------| 
B|-13--12--17------13--12--------5-| 
G|-------------------------------5-| 
D|-------------------------------5-| 
A|-12--10--15------12--10----12----| 
E|-------------------------13------| 


Riff III 

Cigarette inside your hand 
Wish you would hold me like that 
share this page

See Also: